Prine John - He Forgot It Was Sunday Chords & Tabs

 

He Forgot It Was Sunday Chords & Tabs

Prine John Chords & Tabs

Version: 2 Type: Tab 0 ratings
1 star 2 stars 3 stars 4 stars 5 stars
comments

He Forgot It Was Sunday Tab

   
##################################################################################
# This file is the author's own work and represents their interpretation of the  #
# song. You may only use this file for private study, scholarship, or research.  #
##################################################################################

:He Forgot It Was Sunday :(John Prine)}

{ci:Intro - Capo on 2:}

{sot:}
   G         C     D          G         C         Am   D         G
E|---|-3-2-|-2-0-|-0--|-2-0-|-0------|-3-2-|-2-0-|---|---|-----|-------
B|---|-----|-----|----|-----|----3-3-|-----|-----|---|-3-|-----|-------
G|---|-----|-----|----|-----|--------|-----|-----|-2-|---|-4-2-|-0-----
D|---|-----|-----|----|-----|--------|-----|-----|---|---|-----|-------
A|---|-----|-----|----|-----|--------|-----|-----|---|---|-----|-------
E|---|-----|-----|----|-----|--------|-----|-----|---|---|-----|-------
{eot:}

{ci:Repeat Chorus:}
[ Tab from: http://www.guitartabs.cc/tabs/p/prine_john/he_forgot_it_was_sunday_tab_ver_2.html ]
{ci:Instrumental:}
{sot:}
   G         C     D          G         C         Am   D         G
E|---|-3-2-|-2-0-|-0--|-2-0-|-0------|-3-2-|-2-0-|---|---|-----|-------
B|---|-----|-----|----|-----|----3-3-|-----|-----|---|-3-|-----|-------
G|---|-----|-----|----|-----|--------|-----|-----|-2-|---|-4-2-|-0-----
D|---|-----|-----|----|-----|--------|-----|-----|---|---|-----|-------
A|---|-----|-----|----|-----|--------|-----|-----|---|---|-----|-------
E|---|-----|-----|----|-----|--------|-----|-----|---|---|-----|-------
{eot:}


{ci:Repeat Chorus:}

{ci:Ending:}
 He for[Am]got that [D]it was [G]Sunday  [Am] [D] [G]

{ci: A short wait, please ..}

{sot:}
   G         C     D          G         C         Am   D         G
E|---|-3-2-|-2-0-|-0--|-2-0-|-0------|-3-2-|-2-0-|---|---|-----|-------
B|---|-----|-----|----|-----|----3-3-|-----|-----|---|-3-|-----|-------
G|---|-----|-----|----|-----|--------|-----|-----|-2-|---|-4-2-|-0-----
D|---|-----|-----|----|-----|--------|-----|-----|---|---|-----|-------
A|---|-----|-----|----|-----|--------|-----|-----|---|---|-----|-------
E|---|-----|-----|----|-----|--------|-----|-----|---|---|-----|-------
{eot:}


{sot:}
   G         C     D          G         C         Am   D         G
E|---|-3-2-|-2-0-|-0--|-2-0-|-0------|-3-2-|-2-0-|---|---|-----|-------
B|---|-----|-----|----|-----|----3-3-|-----|-----|---|-3-|-----|-------
G|---|-----|-----|----|-----|--------|-----|-----|-2-|---|-4-2-|-0-----
D|---|-----|-----|----|-----|--------|-----|-----|---|---|-----|-------
A|---|-----|-----|----|-----|--------|-----|-----|---|---|-----|-------
E|---|-----|-----|----|-----|--------|-----|-----|---|---|-----|-------
{eot:}
Comments