Prine John - He Forgot It Was Sunday Chords & Tabs

 

Prine John Chords & Tabs

Version: 1 Type: Tab 0 ratings
1 star 2 stars 3 stars 4 stars 5 stars
comments

He Forgot It Was Sunday Tab

   
#----------------------------------PLEASE NOTE---------------------------------#
#This file is the author's own work and represents their interpretation of the #
#song. You may only use this file for private study, scholarship, or research. #
#------------------------------------------------------------------------------#
From: booker@elvice.ib.stortek.com (Sam Booker)
Subject: TAB: He Forgot It Was Sunday by John Prine
Date: Fri, 1 Sep 1995 13:00:03 -0600 (MDT)

HE FORGOT IT WAS SUNDAY
-----------------------
Words and music by John Prine

Transcribed by Sam Booker 

>From Lost Dogs and Mixed Blessings, Oh Boy Records, 1995

NOTE:CAPO on II
[ Tab from: http://www.guitartabs.cc/tabs/p/prine_john/he_forgot_it_was_sunday_tab.html ]
INTRO:
   G         C     D          G         C         Am   D         G
E|---|-3-2-|-2-0-|-0--|-2-0-|-0------|-3-2-|-2-0-|---|---|-----|-------
B|---|-----|-----|----|-----|----3-3-|-----|-----|---|-3-|-----|-------
G|---|-----|-----|----|-----|--------|-----|-----|-2-|---|-4-2-|-0-----
D|---|-----|-----|----|-----|--------|-----|-----|---|---|-----|-------
A|---|-----|-----|----|-----|--------|-----|-----|---|---|-----|-------
E|---|-----|-----|----|-----|--------|-----|-----|---|---|-----|-------


CHORUS:

        G                C
  On a dusty pew in a vestibule

            D              G
  Sits the Devil playing pocket pool

                         C         Am
  He's waiting for the next poor fool

          D               G
  Who forgot that it was Sunday


INSTRUMENTAL AFTER 2ND VERSE AND CHORUS:

   G         C     D          G         C         Am   D         G
E|---|-3-2-|-2-0-|-0--|-2-0-|-0------|-3-2-|-2-0-|---|---|-----|-------
B|---|-----|-----|----|-----|----3-3-|-----|-----|---|-3-|-----|-------
G|---|-----|-----|----|-----|--------|-----|-----|-2-|---|-4-2-|-0-----
D|---|-----|-----|----|-----|--------|-----|-----|---|---|-----|-------
A|---|-----|-----|----|-----|--------|-----|-----|---|---|-----|-------
E|---|-----|-----|----|-----|--------|-----|-----|---|---|-----|-------

ENDING:
        Am       D       G      Am  D  G
 He forgot that it was Sunday
Comments