Prince - Musicology Chords & Tabs

 

Musicology Chords & Tabs

Prince Chords & Tabs

Version: 1 Type: Bass Tab 0 ratings
1 star 2 stars 3 stars 4 stars 5 stars
comments

Musicology Bass Tab

Artist: Prince
Song: Musicology
Bassist: Rhonda Smith

 4/4
 Q=120

Repeat main riff throughout the entire song, with a few rests 
and variations thrown in.

Main Riff

  E  E  S  q  S  S  E  S  E    Q   S  q  S  S  E  S  E
|------16-16----16-16-14-16-|-----16-16----16-16-14-16-|
|---------------------------|--------------------------|
|-0-14----------------------|-14-----------------------|
|---------------------------|--------------------------|

[ Tab from: http://www.guitartabs.cc/tabs/p/prince/musicology_btab.html ]
   Q   S  q  S  S  E  S  E   * H.      Q
|-----16-16----16-16-14-16-|----------------|
|--------------------------|----------------|
|-14-----------------------|--14\-----------|
|--------------------------|----------------|


*Ending Variations

    Q  E  E  S  S  S  S  S  S  S  S   e q E H
|-----16-16----------14-16-14-------|--------------|
|--------------14-16----------16-14-|--------------|
|-/14-------14----------------------|-0-2----------|
|-----------------------------------|-------2\-----|
Comments