Prince - Lets Work Chords & Tabs

 

Lets Work Chords & Tabs

Prince Chords & Tabs

Version: 1 Type: Bass Tab 0 ratings
1 star 2 stars 3 stars 4 stars 5 stars
comments

Lets Work Bass Tab

Slap and pop the whole song

~=hold the note
G:-----------------------------------------9---7---|
D:--------6-7------6~7--------6-7------------------|
A:--------------------------------------7----------|
E:------7--------7~---------7----------------------|
[ Tab from: http://www.guitartabs.cc/tabs/p/prince/lets_work_btab.html ]
G:-----------------------------------------9---7--9-|
D:--------6-7------6~7--------6-7-------------------|
A:--------------------------------------7-----------|
E:------7--------7~---------7-----------------------|


Repeat, improving whatever slap doodads you got.
Comments