Prince - Computer Blue Chords & Tabs

 

Computer Blue Chords & Tabs

Prince Chords & Tabs

Version: 1 Type: Tab 0 ratings
1 star 2 stars 3 stars 4 stars 5 stars
comments

Computer Blue Tab

   
#----------------------------------PLEASE NOTE---------------------------------#
#This file is the author's own work and represents their interpretation of the #
#song. You may only use this file for private study, scholarship, or research. #
#------------------------------------------------------------------------------#

COMPUTER BLUE
As recorded by Prince
(From the 1984 Album PURPLE RAIN)


Transcribed by Twelfth-Elf

 Words and Music by Prince, Wendy Melvoin, Lisa Coleman, & John L. Nelson

 

Gtr I (E A D G B E) - 'Guitar 1'
Gtr II (E A D G B E) - 'Synth 1'
Gtr III (E A D G B E) - 'Lead'
Gtr IV (E A D G B E) - 'Piano'


 The Wendy, The Lisa...
  Q=133
  N.C.
 4/4
  Gtr III
                                       |--4:3---|
  W          W          Q  E   E  +E   E  E  E  E
|----------|----------|------/22-(22)-------------|
|----------|----------|------------------------20-|
|----------|----------|---------------19-19-19----|
|----------|----------|---------------------------|
|----------|----------|---------------------------|
|----------|----------|---------------------------|


   S.  E  +T   S..  E H    X
|-----------------------------|
|-----20-(20)------20---------|
|-19----------19--------------|
|-----------------------------|
|-----------------------------|
|-----------------------------|


    N.C.
                                                        |--3--|
  W          W           E  H     +Q    +E     E  E  E  E  E  E  +E   Q
|----------|----------|----22----(22)--(22)-|----22-22-22-22-22-(22)-22S==|
|----------|----------|-20------------------|-20--------------------------|
|----------|----------|---------------------|-----------------------------|
|----------|----------|---------------------|-----------------------------|
|----------|----------|---------------------|-----------------------------|
|----------|----------|---------------------|-----------------------------|


  N.C.
   Q.       E  H            W
|-15s======22-------------|----------|
|-------------------------|----------|
|-------------------------|----------|
|-------------------------|----------|
|-------------------------|----------|
|-------------------------|----------|
|
| Gtr I
|  E  E  E  E  E  E  E  E   W
|-------------------------|----------|
|-------------------------|----------|
|--------6----------------|----------|
|--5--6-----6--5--6--5--6-|----------|
|-------------------------|----------|
|-------------------------|----------|
|
| Gtr II
|  E  E  E  E  E  E  E  E   W
|-------21----------------|----------|
|-20-21----21-20-21-20-21-|----------|
|-------------------------|----------|
|-------------------------|----------|
|-------------------------|----------|
|-------------------------|----------|


  H    Q  S  S  E    S  S  S.  E  S.  E Q.   S
|--------------22-|----22-----22-----22--------|
|-----------20----|-20----20-----20------------|
|-----------------|----------------------------|
|-----------------|----------------------------|
|-----------------|----------------------------|
|-----------------|----------------------------|
|
| W                  W
|-----------------|----------------------------|
|-----------------|----------------------------|
|-----------------|----------------------------|
|-----------------|----------------------------|
|-----------------|----------------------------|
|-----------------|----------------------------|
|
| W                  W
|-----------------|----------------------------|
|-----------------|----------------------------|
|-----------------|----------------------------|
|-----------------|----------------------------|
|-----------------|----------------------------|
|-----------------|----------------------------|


  N.C.
                               |--3--|     |--3---|
   H           Q    E  E    E  E  S  S  E  E  S.  S.  E  E  E
|------------------22-22-|-22-22-22-22-22-22-22--22--22-22-22--|
|------------------------|-------------------------------------|
|------------------------|-------------------------------------|
|------------------------|-------------------------------------|
|------------------------|-------------------------------------|
|------------------------|-------------------------------------|
|
|  E  E  E  E  E E  Q       W
|------------------------|-------------------------------------|
|------------------------|-------------------------------------|
|--------6---------------|-------------------------------------|
|--5--6-----6--5---------|-------------------------------------|
|------------------------|-------------------------------------|
|------------------------|-------------------------------------|
|
|  E  E  E  E  E E  Q       W
|-------21---------------|-------------------------------------|
|-20-21----21-20---------|-------------------------------------|
|------------------------|-------------------------------------|
|------------------------|-------------------------------------|
|------------------------|-------------------------------------|
|------------------------|-------------------------------------|


                                                                                                     Ebm7/F#
        \0.25____/    \0.25____/                  \0.25____/         \0.25____/    \0.25____/
   Q   +S.      +S   +S.      +S   +Q.    +S     +S       +E   +E   +T       +S   +T       +S   +Q    Q
|-22--(22)-----(22)-(22)-----(22)-(22)---(22)-|-(22)-----(22)-(22)-(22)-----(22)-(22)-----(22)-(22)-------||
|---------------------------------------------|-----------------------------------------------------------||
|---------------------------------------------|-----------------------------------------------------------||
|---------------------------------------------|-----------------------------------------------------------||
|---------------------------------------------|-----------------------------------------------------------||
|---------------------------------------------|-----------------------------------------------------------||
|
|  W                                              W
|---------------------------------------------|-----------------------------------------------------------||
|---------------------------------------------|-----------------------------------------------------------||
|---------------------------------------------|-----------------------------------------------------------||
|---------------------------------------------|-----------------------------------------------------------||
|---------------------------------------------|-----------------------------------------------------------||
|---------------------------------------------|-----------------------------------------------------------||
|
|  W                                              H                                              Q    E E
|---------------------------------------------|------------------------------------------------------14---||
|---------------------------------------------|------------------------------------------------------14---||
|---------------------------------------------|------------------------------------------------------15---||
|---------------------------------------------|------------------------------------------------------16---||
|---------------------------------------------|------------------------------------------------------18---||
|---------------------------------------------|------------------------------------------------------14---||


  The Groove
       Bbm/Eb          C#5/Ab   Eb5/Bb
   Gtr I
   E E  E E E  E E E   E  E   E  Q     E  E E
||-------------------|------------------------|
||-------------------|------------------------|
||-------------------|-6------6--8-----8--6-8-|
||-------------------|-6------6--8-----8--6-8-|
||-x-x--6---4--x-x---|---(8)------------------|
||-------------------|------------------------|
|
|  Gtr II
|  Q    E Q    E Q     Q      E  E  E  E  E E
||-----21-----21-----|-------15-15-15-15-15---|
||-----23-----23-----|-------16-16-16-16-16---|
||-----24-----24-----|-------18-18-18-18-18---|
||-----23-----23-----|-------17-17-17-17-17---|
||-----25-----25-----|------------------------|
||-----23-----23-----|------------------------|


      Bbm/Eb          C#5/Ab   Eb5/Bb
                                ~~    PM
  E E  E E E  E E E   E  E   E  Q     E  E E
|-------------------|------------------------|
|-------------------|------------------------|
|-------------------|-6------6--8--------6---|
|-------------------|-6------6--8-----8--6---|
|-x-x--6---4--x-x---|---(8)------------------|
|-------------------|------------------------|
|
| Q    E Q    E Q     Q      E  E  E  E  E E
|-----21-----21-----|-------15-15-15-15-15---|
|-----23-----23-----|-------16-16-16-16-16---|
|-----24-----24-----|-------18-18-18-18-18---|
|-----23-----23-----|-------17-17-17-17-17---|
|-----25-----25-----|------------------------|
|-----23-----23-----|------------------------|


      Bbm/Eb          C#5/Ab   Eb5/Bb
  E E  E E E  E E E   E  E   E  Q     E  E E
|-------------------|------------------------|
|-------------------|------------------------|
|-------------------|-6------6--8-----8--6-8-|
|-------------------|-6------6--8-----8--6-8-|
|-x-x--6---4--x-x---|---(8)------------------|
|-------------------|------------------------|
|
| Q    E Q    E Q     Q      E  E  E  E  E E
|-----21-----21-----|-------15-15-15-15-15---|
|-----23-----23-----|-------16-16-16-16-16---|
|-----24-----24-----|-------18-18-18-18-18---|
|-----23-----23-----|-------17-17-17-17-17---|
|-----25-----25-----|------------------------|
|-----23-----23-----|------------------------|


      Bbm/Eb          C#5/Ab   Eb5/Bb      C#sus2/Eb
                                ~~    PM
  E E  E E E  E E E   E  E   E  Q     E  E E
|-------------------|-------------------------||
|-------------------|-------------------------||
|-------------------|-6------6--8--------6----||
|-------------------|-6------6--8-----8--6----||
|-x-x--6---4--x-x---|---(8)-------------------||
|-------------------|-------------------------||
|
| Q    E Q    E Q     Q      E  E  E  E  E E
|-----21-----21-----|-------15-15-15-15-21----||
|-----23-----23-----|-------16-16-16-16-21----||
|-----24-----24-----|-------18-18-18-18-20----||
|-----23-----23-----|-------17-17-17-17-23----||
|-----25-----25-----|-------------------23----||
|-----23-----23-----|-------------------23----||


 Verse
      Bbmadd11/Eb                            Bbmadd11/Eb
                              ~                                      ~
  E E  E E E  E E E   E  E  E Q  E E E   E E  E E E  E E E   E  E  E Q  E E E
|-------------------|------------------|-------------------|-------------------|
|-------------------|------------------|-------------------|-------------------|
|-------------------|------------------|-------------------|-------------------|
|-------------------|------------------|-------------------|-------------------|
|-x-x--6---4--x-x---|-4-----4-6--6-4-6-|-x-x--6---4--x-x---|-4-----4-6--6-4----|
|-------------------|---(6)------------|-------------------|---(6)-------------|
|
| Gtr II
| Q    E Q    E Q     W                  Q    E Q    E Q     W
|-----11-----11-----|------------------|-----11-----11-----|-------------------|
|-----14-----14-----|------------------|-----14-----14-----|-------------------|
|-----15-----15-----|------------------|-----15-----15-----|-------------------|
|-----13-----13-----|------------------|-----13-----13-----|-------------------|
|-------------------|------------------|-------------------|-------------------|
|-------------------|------------------|-------------------|-------------------|


      Bbmadd11/Eb
                              ~
  E E  E E E  E E E   E  E  E Q  E E E
|-------------------|------------------|
|-------------------|------------------|
|-------------------|------------------|
|-------------------|------------------|
|-x-x--6---4--x-x---|-4-----4-6--6-4-6-|
|-------------------|---(6)------------|
|
| Q    E Q    E Q     W
|-----11-----11-----|------------------|
|-----14-----14-----|------------------|
|-----15-----15-----|------------------|
|-----13-----13-----|------------------|
|-------------------|------------------|
|-------------------|------------------|


      Bbmadd11/Eb
                              ~~~~~~~
  E E  E E E  E E E   E  E  E Q  +S  S E. S
|-------------------|-----------------------|
|-------------------|-----------------------|
|-------------------|-----------------------|
|-------------------|-----------------------|
|-x-x--6---4--x-x---|-4-----4-6--(6)-6-4\---|
|-------------------|---(6)-----------------|
|
| Q    E Q    E Q     W
|-----11-----11-----|-----------------------|
|-----14-----14-----|-----------------------|
|-----15-----15-----|-----------------------|
|-----13-----13-----|-----------------------|
|-------------------|-----------------------|
|-------------------|-----------------------|


      Bbmadd11/Eb
                              ~
  E E  E E E  E E E   E  E  E Q  S S E E
|-------------------|--------------------|
|-------------------|--------------------|
|-------------------|--------------------|
|-------------------|--------------------|
|-x-x--6---4--x-x---|-4-----4-6--6-6-4-6-|
|-------------------|---(6)--------------|
|
| Q    E Q    E Q     W
|-----11-----11-----|--------------------|
|-----14-----14-----|--------------------|
|-----15-----15-----|--------------------|
|-----13-----13-----|--------------------|
|-------------------|--------------------|
|-------------------|--------------------|


      Bbmadd11/Eb
                              ~
  E E  E E E  E E E   E  E  E Q  S S E E
|-------------------|---------------------|
|-------------------|---------------------|
|-------------------|---------------------|
|-------------------|---------------------|
|-x-x--6---4--x-x---|-4-----4-6--6-6-4----|
|-------------------|---(6)---------------|
|
| Q    E Q    E Q     W
|-----11-----11-----|---------------------|
|-----14-----14-----|---------------------|
|-----15-----15-----|---------------------|
|-----13-----13-----|---------------------|
|-------------------|---------------------|
|-------------------|---------------------|


      Bbmadd11/Eb
                              ~
  E E  E E E  E E E   E  E  E Q  E E E
|-------------------|------------------|
|-------------------|------------------|
|-------------------|------------------|
|-------------------|------------------|
|-x-x--6---4--x-x---|-4-----4-6--6-4-6-|
|-------------------|---(6)------------|
|
| Gtr II
| Q    E Q    E Q     W
|-----11-----11-----|------------------|
|-----14-----14-----|------------------|
|-----15-----15-----|------------------|
|-----13-----13-----|------------------|
|-------------------|------------------|
|-------------------|------------------|
|
| W                   W
|-------------------|------------------|
|-------------------|------------------|
|-------------------|------------------|
|-------------------|------------------|
|-------------------|------------------|
|-------------------|------------------|


      Bbmadd11/Eb
  Gtr I
                                      ~
  E E  E E   E   E  E   E     E  E  E Q   E E E
|---------------------------|--------------------||
|---------------------------|--------------------||
|---------------------------|--------------------||
|---------------------------|--------------------||
|-x-x--6-----4---x--x-------|-4-----4-6---6-4----||
|---------------------------|---(6)--------------||
|
| Q    E Q       E  Q         W
|-----11--------11----------|--------------------||
|-----14--------14----------|--------------------||
|-----15--------15----------|--------------------||
|-----13--------13----------|--------------------||
|---------------------------|--------------------||
|---------------------------|--------------------||
|
|     Gtr III
| Q    Q    +E   E.   E   S   H         Q   Q
|-----11---(11)--9----------|--------------------||
|-----11---(11)-11----------|--------------------||
|-----12---(12)-12----------|---------------8----||
|-----13---(13)-13----------|--------------------||
|---------------------------|---------------6----||
|---------------------------|--------------------||


 Chorus
  B5       Bbmadd11C#5
  W                W
|----------------|----------|
|----------------|----------|
|----------------|----------|
|-4--------------|-6--------|
|-2--------------|-4--------|
|----------------|----------|
|
| W                W
|----------------|----------|
|----------------|----------|
|----------------|----------|
|----------------|----------|
|----------------|----------|
|----------------|----------|
|
|    Gtr II
| Q   E Q   E Q    W
|----11----11----|----------|
|----14----14----|----------|
|----15----15----|----------|
|----13----13----|----------|
|----------------|----------|
|----------------|----------|


        Bbmadd11/Eb
                               PM     ~~
   E  E  E  E  E  E  E  E   E  E   E  Q     E  E E
|-------------------------|-------------------------|
|-------------------------|-------------------------|
|-------------------------|-------------------------|
|-------------------------|-------------------------|
|--x--x--6-----4--x--x----|-4------4--6-----6--4-6--|
|-------------------------|---(6)-------------------|
|
| Gtr III
|  E  E  E  E  E  E  E  E   W
|-------21----------------|-------------------------|
|-20-21----21-20-21-20-21-|-------------------------|
|--------6----------------|-------------------------|
|--5--6-----6--5--6--5--6-|-------------------------|
|-------------------------|-------------------------|
|-------------------------|-------------------------|
|
|  Q     E  Q     E  Q      Q      E  E  E  E  E E
|-------11-------11-------|-------15-15-15-15-15----|
|-------14-------14-------|-------16-16-16-16-16----|
|-------15-------15-------|-------18-18-18-18-18----|
|-------13-------13-------|-------17-17-17-17-17----|
|-------------------------|-------------------------|
|-------------------------|-------------------------|


  B5       Bbmadd11C#5
  W                W
|----------------|----------|
|----------------|----------|
|----------------|----------|
|-4--------------|-6--------|
|-2--------------|-4--------|
|----------------|----------|
|
| W                W
|----------------|----------|
|----------------|----------|
|----------------|----------|
|----------------|----------|
|----------------|----------|
|----------------|----------|
|
| Q   E Q   E Q    W
|----11----11----|----------|
|----14----14----|----------|
|----15----15----|----------|
|----13----13----|----------|
|----------------|----------|
|----------------|----------|


        Bbm/Eb
                               PM     ~~
   E  E  E  E  E  E  E  E   E  E   E  Q     E  E E
|-------------------------|-------------------------|
|-------------------------|-------------------------|
|-------------------------|-------------------------|
|-------------------------|-------------------------|
|--x--x--6-----4--x--x----|-4------4--6-----6--4-6--|
|-------------------------|---(6)-------------------|
|
| Gtr III
|  E  E  E  E  E  E  E  E   W
|-------21----------------|-------------------------|
|-20-21----21-20-21-20-21-|-------------------------|
|--------6----------------|-------------------------|
|--5--6-----6--5--6--5--6-|-------------------------|
|-------------------------|-------------------------|
|-------------------------|-------------------------|
|
|  Q     E  Q     E  Q      Q      E  E  E  E  E E
|-------21-------21-------|-------15-15-15-15-15----|
|-------23-------23-------|-------16-16-16-16-16----|
|-------24-------24-------|-------18-18-18-18-18----|
|-------23-------23-------|-------17-17-17-17-17----|
|-------25-------25-------|-------------------------|
|-------23-------23-------|-------------------------|


        Bbm/Eb                                           Bbm/Eb
                                    ~~
   E  E  E  E  E  E E E   E  E   E  Q     E  E E    E  E  E  E  E  E  E  E
|-----------------------|------------------------|-------------------------|
|-----------------------|------------------------|-------------------------|
|-----------------------|------------------------|-------------------------|
|-----------------------|------------------------|-------------------------|
|--x--x--6-----4--x-x---|-4------4--6-----6--4---|--x--x--6-----4--x--x----|
|-----------------------|---(6)------------------|-------------------------|
|
|  E  E  E  E  E  E Q     W                         E  E  E  E  E  E  E  E
|-------21--------------|------------------------|-------21----------------|
|-20-21----21-20--------|------------------------|-20-21----21-20-21-20-21-|
|--------6--------------|------------------------|--------6----------------|
|--5--6-----6--5--------|------------------------|--5--6-----6--5--6--5--6-|
|-----------------------|------------------------|-------------------------|
|-----------------------|------------------------|-------------------------|
|
|  Q     E  Q     E Q     Q      E  E  E  E  E E    Q     E  Q     E  Q
|-------21-------21-----|-------15-15-15-15-15---|-------21-------21-------|
|-------23-------23-----|-------16-16-16-16-16---|-------23-------23-------|
|-------24-------24-----|-------18-18-18-18-18---|-------24-------24-------|
|-------23-------23-----|-------17-17-17-17-17---|-------23-------23-------|
|-------25-------25-----|------------------------|-------25-------25-------|
|-------23-------23-----|------------------------|-------23-------23-------|


                                Bbm/Eb
            ~~
  E  E   E  Q    E  E E    E  E  E  E  E  E E E
|-----------------------|-----------------------|
|-----------------------|-----------------------|
|-----------------------|-----------------------|
|-----------------------|-----------------------|
|-4------4--6----6--4-6-|--x--x--6-----4--x-x---|
|---(6)-----------------|-----------------------|
|
| W                        E  E  E  E  E  E Q
|-----------------------|-------21--------------|
|-----------------------|-20-21----21-20--------|
|-----------------------|--------6--------------|
|-----------------------|--5--6-----6--5--------|
|-----------------------|-----------------------|
|-----------------------|-----------------------|
|
| Q      E  E E  E  E E    Q     E  Q     E Q
|-------15-15---15-15---|-------21-------21-----|
|-------16-16---16-16---|-------23-------23-----|
|-------18-18---18-18---|-------24-------24-----|
|-------17-17---17-17---|-------23-------23-----|
|-----------------------|-------25-------25-----|
|-----------------------|-------23-------23-----|


            ~~~~~~~~
  E  E   E  Q   +S  S  S S S S
|------------------------------||
|------------------------------||
|------------------------------||
|------------------------------||
|-4------4--6---(6)-4h=6p4-----||
|---(6)--------------------6---||
|
| W
|------------------------------||
|------------------------------||
|------------------------------||
|------------------------------||
|------------------------------||
|------------------------------||
|
| Q      E  E E  E     E   E
|-------15-15---15----23-------||
|-------16-16---16-------------||
|-------18-18---18----20-------||
|-------17-17---17-------------||
|------------------------------||
|------------------------------||


                On Your Knees, Wendy
   Ab5/Bb        A5
   Gtrs II, III  Gtr III
    W             S  S  S T  T  E  S S  S  S S  S S  S S  S
||-----------||---------------------------------------------|
||-----------||o--------------------------------------------|
||--8--------||-----------9h10h11-10-9------------9---------|
||--6--------||---9-10-11--------------11-10-9------11-9----|
||-----------||o-------------------------------11--------11-|
||-----------||---------------------------------------------|
|
|  Gtr I
|   W             W
||-----------||---------------------------------------------|
||-----------||o--------------------------------------------|
||-----------||---2-----------------------------------------|
||--4--------||---2-----------------------------------------|
||--2--------||o--0-----------------------------------------|
||-----------||---------------------------------------------|
|
|  Gtr II
|   W             W
||-23--------||--24-----------------------------------------|
||-21--------||o-24-----------------------------------------|
||-23--------||--21-----------------------------------------|
||-----------||---------------------------------------------|
||-----------||o--------------------------------------------|
||-----------||---------------------------------------------|


    S   S  S T  T  E  S S  S  S S  S S  S S  S
|----------------------------------------------|
|----------------------------------------------|
|------------9h10h11-10-9------------9---------|
|---9--10-11--------------11-10-9------11-9----|
|---------------------------------11--------11-|
|----------------------------------------------|
|
|  +W
|----------------------------------------------|
|----------------------------------------------|
|--(2)-----------------------------------------|
|--(2)-----------------------------------------|
|--(0)-----------------------------------------|
|----------------------------------------------|
|
|  +W
|-(24)-----------------------------------------|
|-(24)-----------------------------------------|
|-(21)-----------------------------------------|
|----------------------------------------------|
|----------------------------------------------|
|----------------------------------------------|


  C#5
   S  S  S T  T  E  S S  S  S S  S S  S S  S
|--------------------------------------------|
|--------------------------------------------|
|----------9h10h11-10-9------------9---------|
|--9-10-11--------------11-10-9------11-9----|
|-------------------------------11--------11-|
|--------------------------------------------|
|
|  E     E       Q       H
|--------------------------------------------|
|--------------------------------------------|
|--6-----------------------------------------|
|--6-----------------------------------------|
|--4-----------------------------------------|
|--------------------------------------------|
|
|  E     E       Q       H
|-21-----------------------------------------|
|-21-----------------------------------------|
|-22-----------------------------------------|
|--------------------------------------------|
|--------------------------------------------|
|--------------------------------------------|


  S  S  S T  T  E  S S  S  S S  S S  S S  S
|---------------------------------------------||
|--------------------------------------------o||
|---------9h10h11-10-9------------9-----------||
|-9-10-11--------------11-10-9------11-9------||
|------------------------------11--------11--o||
|---------------------------------------------||
|
| W
|---------------------------------------------||
|--------------------------------------------o||
|---------------------------------------------||
|---------------------------------------------||
|--------------------------------------------o||
|---------------------------------------------||
|
| W
|---------------------------------------------||
|--------------------------------------------o||
|---------------------------------------------||
|---------------------------------------------||
|--------------------------------------------o||
|---------------------------------------------||


  Eb5
   S  S  S  T  T  E  S  S  S  S  S  S  S  S  S  S
|-------------------------------------------------|
|-------------------------------------------------|
|----------15h16h17-16-15-------------15----------|
|-15-16-17----------------17-16-15-------17-15----|
|----------------------------------17----------17-|
|-------------------------------------------------|
|
|  W
|-------------------------------------------------|
|-------------------------------------------------|
|--8----------------------------------------------|
|--8----------------------------------------------|
|--6----------------------------------------------|
|-------------------------------------------------|
|
|  W
|-23----------------------------------------------|
|-23----------------------------------------------|
|-20----------------------------------------------|
|-------------------------------------------------|
|-------------------------------------------------|
|-------------------------------------------------|


    S   S  S  T  T  E  S  S  S  S  S  S  S  S  S  S
|----------------------------------------------------|
|----------------------------------------------------|
|------------15h16h17-16-15-------------15-----------|
|--15--16-17----------------17-16-15-------17-15-----|
|------------------------------------17----------17--|
|----------------------------------------------------|
|
|  +W
|----------------------------------------------------|
|----------------------------------------------------|
|--(8)-----------------------------------------------|
|--(8)-----------------------------------------------|
|--(6)-----------------------------------------------|
|----------------------------------------------------|
|
|  +W
|-(23)-----------------------------------------------|
|-(23)-----------------------------------------------|
|-(20)-----------------------------------------------|
|----------------------------------------------------|
|----------------------------------------------------|
|----------------------------------------------------|


  G5
   S  S  S  T  T  E  S  S  S  S  S  S  S  S  S  S
|-------------------------------------------------|
|-------------------------------------------------|
|----------15h16h17-16-15-------------15----------|
|-15-16-17----------------17-16-15-------17-15----|
|----------------------------------17----------17-|
|-------------------------------------------------|
|
|  E     E        Q        H
|-------------------------------------------------|
|--8----------------------------------------------|
|--7----------------------------------------------|
|--5----------------------------------------------|
|-------------------------------------------------|
|-------------------------------------------------|
|
|  E     E        Q        H
|-22----------------------------------------------|
|-23----------------------------------------------|
|-24----------------------------------------------|
|-------------------------------------------------|
|-------------------------------------------------|
|-------------------------------------------------|

[ Tab from: http://www.guitartabs.cc/tabs/p/prince/computer_blue_tab.html ]
   S  S  S  T  T  E  S  S  S  S  S  S  S  S  S  S
|--------------------------------------------------|
|--------------------------------------------------|
|----------15h16h17-16-15-------------15-----------|
|-15-16-17----------------17-16-15-------17-15-----|
|----------------------------------17----------17--|
|--------------------------------------------------|
|
|  W
|--------------------------------------------------|
|--------------------------------------------------|
|--------------------------------------------------|
|--------------------------------------------------|
|--------------------------------------------------|
|--------------------------------------------------|
|
|  W
|--------------------------------------------------|
|--------------------------------------------------|
|--------------------------------------------------|
|--------------------------------------------------|
|--------------------------------------------------|
|--------------------------------------------------|


  C#5                                     Ab5/C#
  Gtr I
   <
   E E E E E E E E     E  E E E E E E E     E  E E E E E E E
|------------------|--------------------|--------------------|
|------------------|--------------------|--------------------|
|--6-6-6-6-6-6-6-6-|---6--6-6-6-6-6-6-6-|---6--6-6-6-6-6-6-6-|
|--6-6-6-6-6-6-6-6-|---6--6-6-6-6-6-6-6-|---6--6-6-6-6-6-6-6-|
|--4-4-4-4-4-4-4-4-|---4--4-4-4-4-4-4-4-|---4--4-4-4-4-4-4-4-|
|------------------|--------------------|--------------------|
|
| Gtr III
|                                           <
|                                           PM-------------|
|  W                  +W                    E  E E E E E E E
|------------------|--------------------|--------------------|
|------------------|--------------------|--------------------|
|--8---------------|--(8)---------------|---8--8-8-8-8-8-8-8-|
|--6---------------|--(6)---------------|---6--6-6-6-6-6-6-6-|
|--4---------------|--(4)---------------|---4--4-4-4-4-4-4-4-|
|------------------|--------------------|--------------------|
|
| Gtr II
|  W                  +W                   +W
|-21---------------|-(21)---------------|-(21)---------------|
|-21---------------|-(21)---------------|-(21)---------------|
|-22---------------|-(22)---------------|-(22)---------------|
|-23---------------|-(23)---------------|-(23)---------------|
|-23---------------|-(23)---------------|-(23)---------------|
|-21---------------|-(21)---------------|-(21)---------------|


  Ab5/C#               Ab5/CD5/G F#5/BC#5/FEb5E5   F5 F#5G5 Ab5
                                                  2/4
    E  E E E E E E E    E S  E S  E S  E S  E  E    E  E  E  E
|--------------------|---------------------------|-------------|
|--------------------|---------------------------|-------------|
|---6--6-6-6-6-6-6-6-|--8---------6--------------|-------------|
|---6--6-6-6-6-6-6-6-|--6----7----4----6----8--9-|-10-11-12-13-|
|---4--4-4-4-4-4-4-4-|-------5---------4----6--7-|--8--9-10-11-|
|--------------------|---------------------------|-------------|
|
|   PM-------------|
|   E  E E E E E E E    E S  E S  E S  E S  Q       W
|--------------------|---------------------------|-------------|
|--------------------|---------------------------|-------------|
|---8--8-8-8-8-8-8-8-|--8---------6--------------|-------------|
|---6--6-6-6-6-6-6-6-|--6----7----4----6---------|-------------|
|---4--4-4-4-4-4-4-4-|--4----5----2----4---------|-------------|
|--------------------|-------3---------2---------|-------------|
|
|  +W                   E S  E S  E S  E S  E  E    E  E  E  E
|-(21)---------------|---------------------18-19-|-20-21-22-23-|
|-(21)---------------|-14--------12--------11-12-|-13-14-15-16-|
|-(22)---------------|-10---12---11---11---10-11-|-12-13-14-15-|
|-(23)---------------|-13---12--------11---------|-------------|
|-(23)---------------|---------------------------|-------------|
|-(21)---------------|---------------------------|-------------|


 4/4
   H           Q     E  E
|-------------------------|
|-------------------------|
|----------------------13-|
|-------------------------|
|-------------------------|
|-------------------------|
|
|  E  E  E  E  E  E  E  E
|-------------------------|
|-------------------------|
|--------6----------------|
|--5--6-----6--5--6--5--6-|
|-------------------------|
|-------------------------|
|
|  E  E  E  E  E  E  E  E
|-------21----------------|
|-20-21----21-20-21-20-21-|
|-------------------------|
|-------------------------|
|-------------------------|
|-------------------------|


  Ab5                             Cm/F#
                                 5/4
   S  S  S  S E  S  S  S  E. Q     W
|-------------------------------|----------------------|
|-------------------------------|----------------------|
|-------------------------------|----------------------|
|-13-13-13-13---13-13-13-13\----|----------------------|
|-11-11-11-11---11-11-11-11\----|----------------------|
|-------------------------------|----------------------|
|
|  W                               W
|-------------------------------|----------------------|
|-------------------------------|----------------------|
|-------------------------------|----------------------|
|-------------------------------|----------------------|
|-------------------------------|----------------------|
|-------------------------------|----------------------|
|
|                                  \1.5_________________
|  W                               W             +Q
|-------------------------------|-11------------(11)---|
|-------------------------------|-13------------(13)---|
|-------------------------------|-11------------(11)---|
|-------------------------------|----------------------|
|-------------------------------|----------------------|
|-------------------------------|----------------------|


  Father's Song Interlude
  4/4
   Gtr II
     >
    +W            +W            +W
||-(11)--------|-(11)--------|-(11)----|
||-(13)--------|-(13)--------|-(13)----|
||-(11)--------|-(11)--------|-(11)----|
||-------------|-------------|---------|
||-------------|-------------|---------|
||-------------|-------------|---------|


    |           |                           |
   +W           Q.    Q   Q.     W          Q.    Q   Q.
|-(11)--------|------19--------|----------|------19---------|
|-(13)--------|----------19----|----------|----------19-----|
|-(11)--------|----------------|----------|-----------------|
|-------------|----------------|----------|-----------------|
|-------------|----------------|----------|-----------------|
|-------------|----------------|----------|-----------------|


  Gtr I
  Q.    E Q   E  E    +Q   E     +E  +E    E S    +S  E
|------10-9--------|------------------------------------|
|------------10----|----------------------10------------|
|---------------11-|-(11)--9b11==(9)-(9)r----9b11-(9)-9-|
|------------------|------------------------------------|
|------------------|------------------------------------|
|------------------|------------------------------------|
|
| Gtr IV
| Q.    E Q   E  E    +W
|------10-9--------|------------------------------------|
|------------10----|------------------------------------|
|---------------11-|-(11)-------------------------------|
|------------------|------------------------------------|
|------------------|------------------------------------|
|------------------|------------------------------------|


  +E. S S S  E Q   E  E
|-----------10-9--------|
|-----------------10----|
|-(9)p7--------------11-|
|-------9---------------|
|-----------------------|
|-----------------------|
|
|  Q.        E Q   E  E
|-----------10-9--------|
|-----------------10----|
|--------------------11-|
|-----------------------|
|-----------------------|
|-----------------------|


   +Q   E     +E  +E    E S    +S  E   +E. S S S  E  Q   E  E
|------------------------------------|-----------15-14--------|
|----------------------10------------|------------------15----|
|-(11)--9b11==(9)-(9)r----9b11-(9)-9-|-(9)p7---------------16-|
|------------------------------------|-------9----------------|
|------------------------------------|------------------------|
|------------------------------------|------------------------|
|
|  +W                                   Q.        E  Q   E  E
|------------------------------------|-----------15-14--------|
|------------------------------------|------------------15----|
|-(11)-------------------------------|---------------------16-|
|------------------------------------|------------------------|
|------------------------------------|------------------------|
|------------------------------------|------------------------|


   +Q.    E  +Q    S  S  E    +E   +E   E  E Q   E  E
|--------14-(14)p=12p10h12-|-(12)-(12)/---10-9--------|
|--------------------------|--------------------10----|
|-(16)---------------------|-----------------------11-|
|--------------------------|--------------------------|
|--------------------------|--------------------------|
|--------------------------|--------------------------|
|
|  +Q.    E  +Q    S  S  E    +Q        E  E Q   E  E
|--------14-(14)--12-10-12-|-(12)---------10-9--------|
|--------------------------|--------------------10----|
|-(16)---------------------|-----------------------11-|
|--------------------------|--------------------------|
|--------------------------|--------------------------|
|--------------------------|--------------------------|


               <
         PM    PM------|
   +Q.   E E E E E   E E E E Q  S T  T  E
|------------------|----------------------|
|----------7-------|-----7----------10h12-|
|-(11)-----7-------|-----7----------------|
|--------9-----9-9-|-9-9---9--------------|
|------------------|----------------------|
|------------------|----------------------|
|
|  +W                H       Q  S T  T  E
|------------------|----------------------|
|------------------|----------------10-12-|
|-(11)-------------|----------------------|
|------------------|----------------------|
|------------------|----------------------|
|------------------|----------------------|


   Q   E  E  +Q.    E   E  E  Q.        Q      +S   S
|------------------10-|-9-----------------------------|
|-10------------------|---11-----------17b19r=(17)p15-|
|-----12--------------|------11-----------------------|
|--------11-(11)------|-------------------------------|
|---------------------|-------------------------------|
|---------------------|-------------------------------|
|
|  Q   E  E  +Q.    E   E  E  Q    +Q.          E
|------------------10-|-9-----------------------------|
|-10------------------|---11-------------------12-----|
|-----12--------------|------11---(11)----------------|
|--------11-(11)------|-------------------------------|
|---------------------|-------------------------------|
|---------------------|-------------------------------|


   Q.      Q.       E  E    E  E  Q   +E   Q   E
|---------------------15-|-14-15-14--(14)/----12-|
|-17------17-------------|-----------------------|
|------------------------|-----------------------|
|------------------------|-----------------------|
|------------------------|-----------------------|
|------------------------|-----------------------|
|
|  Q    E  E   +Q.     E    E  E  Q   +Q.      E
|---------------------10-|--9--------------------|
|-10---------------------|----11--------------12-|
|------12----------------|-------11--(11)--------|
|---------11--(11)-------|-----------------------|
|------------------------|-----------------------|
|------------------------|-----------------------|


                        PM      PM    PM    PM
   Q   E  E  +Q.        E    E  E  E  E  E  E     E  S    S
|-10---9------------------|--------------------------------------|
|--------10-(10)----------|-10-----9-----7-----------------------|
|-----------------------9-|-----9-----9-----7--------------------|
|-------------------------|--------------------------------------|
|-------------------------|--------------------------------------|
|-------------------------|-------------------------10p===9p=====|
|
|                                                    |---3---|
|  Q   E  E  +E   E  E  E    E  E  E  E  E.    E.    S  S    S
|-------------------------|--------------------------------------|
|-10----------------------|----------14-15----17----14-15---14---|
|-----12------------------|-12-14-16-----------------------------|
|--------11-(11)-12-14-16-|--------------------------------------|
|-------------------------|--------------------------------------|
|-------------------------|--------------------------------------|


   ~~~  PM    PM|      PM               PM|
   Q.   E E E E E   q  E Q    Q    E    E E E E E E E E
|-----------------|------------------|------------------|
|-----------------|------7\----------|------------------|
|---------6-------|-7--------------6-|------6---7---9---|
|-------9-----9-9-|----9-------------|--9-9-------------|
|-----------------|------------------|------------------|
|--7--------------|------------------|------------------|
|
|  H      H         H       Q   E  E    Q   H       Q
|-----------------|------------------|------------------|
|-----------------|---------------10-|-12---------------|
|-16--------------|------------------|------------------|
|-----------------|------------------|------------------|
|-----------------|------------------|------------------|
|-----------------|------------------|------------------|
|
| Gtr III
|  ~~~                                  PM|
|  Q.   H       E   H       Q   E  E    E E E E E E E E
|-----------------|------------------|------------------|
|-----------------|------------------|------------------|
|-----------------|------------------|------------------|
|-----------------|------------------|------------------|
|-----------------|----------------4-|------4---5---7---|
|--7--------------|------------------|--7-7---x---------|


                 ~~
  E    +S  S S S E.   +E     E.  E
|----------------------------------|
|-------------------------------12-|
|-9b11r(9)p7-----------------------|
|------------9p7h9----(9)\---------|
|----------------------------------|
|----------------------------------|
|
| H                 E      Q     E
|----------------------------------|
|-------------------------------12-|
|----------------------------------|
|----------------------------------|
|----------------------------------|
|----------------------------------|
|
|                ~~
| E    +S  S S S E.   +E     E.  E
|-------------------------------10-|
|-------------------------------12-|
|----------------------------------|
|----------------------------------|
|-7b9r=(7)-5-----------------------|
|------------7p5h7----(7)\---------|


   Q   E  E  +Q.    E    E  E  Q   +E   Q      +S   S
|------------------10-|--9----------------------------|
|-10------------------|----11----------17b19r=(17)p15-|
|-----12--------------|-------11--(11)----------------|
|--------11-(11)------|-------------------------------|
|---------------------|-------------------------------|
|---------------------|-------------------------------|
|
|  Q   E  E  +Q.    E    E  E  Q   +Q.          E
|------------------10-|--9----------------------------|
|-10------------------|----11------------------12-----|
|-----12--------------|-------11--(11)----------------|
|--------11-(11)------|-------------------------------|
|---------------------|-------------------------------|
|---------------------|-------------------------------|
|
|  Q   E  E  +Q.    E    E  E  Q   +Q.          E
|--9------------------|------------------------10-----|
|-10--10-----------12-|-11---------------------12-----|
|-----12--9--(9)---12-|-11-11-------------------------|
|--------11-(11)------|----11-11--(11)----------------|
|---------------------|-------13--(13)----------------|
|---------------------|-------------------------------|


   Q.      Q.       E  E    E  E  Q   +E   Q   E
|---------------------15-|-14-15-14--(14)/----10-|
|-17------17-------------|-----------------------|
|------------------------|-----------------------|
|------------------------|-----------------------|
|------------------------|-----------------------|
|------------------------|-----------------------|
|
|  Q    E  E   +Q.     E    E  E  Q   +Q.      E
|---------------------10-|--9--------------------|
|-10---------------------|----11--------------12-|
|------12----------------|-------11--(11)--------|
|---------11--(11)-------|-----------------------|
|------------------------|-----------------------|
|------------------------|-----------------------|
|
|  Q    E  E   +Q.     E    E  E  Q   +Q.      E
|--9---------------------|--------------------10-|
|-10---10-------------12-|-11-----------------12-|
|------12--9---(9)----12-|-11-11-----------------|
|---------11--(11)-------|----11-11--(11)--------|
|------------------------|-------13--(13)--------|
|------------------------|-----------------------|


   Q   E  E  +E   E  E  E    E  E  E  E  E  E  E  E
|--9----------------------|-------------------14-15--||
|-----10------------------|----------14-15-17--------||
|---------9--(9)----------|-12-14-16-----------------||
|----------------12-14-16-|--------------------------||
|-------------------------|--------------------------||
|-------------------------|--------------------------||
|
|  Q   E  E  +E   E  E  E    E  E  E  E  E  E  E  E
|-------------------------|-------------------14-15--||
|-10----------------------|----------14-15-17--------||
|-----12------------------|-12-14-16-----------------||
|--------11-(11)-12-14-16-|--------------------------||
|-------------------------|--------------------------||
|-------------------------|--------------------------||
|
|  Q   E  E  +E   E  E  E    E  E  E  E  E  E  E  E
|--9----------------------|-------------------14-15--||
|-10--10------------------|----------14-15-17--------||
|-----12--9--(9)----------|-12-14-16-----------------||
|--------11-(11)-12-14-16-|--------------------------||
|-------------------------|--------------------------||
|-------------------------|--------------------------||


                                        Eb/G
   +Q    +E   Q.      Q        Q.        E  +Q      Q
|-(15)--(15)-15------15-----|-15--------15-(15)----15----|
|---------------------------|----------------------------|
|---------------------------|----------------------------|
|---------------------------|----------------------------|
|---------------------------|----------------------------|
|---------------------------|----------------------------|
|
|   W                          W
|---------------------------|----------------------------|
|--16-----------------------|----------------------------|
|--15-----------------------|----------------------------|
|--17-----------------------|----------------------------|
|---------------------------|----------------------------|
|---------------------------|----------------------------|
|
|                              <
|   Q     E   Q   E.    S E    E   E  E  E   E   E  E  E
|---------------------------|-11--11-11-11--11--11-11-11-|
|---------------------------|----------------------------|
|---x-----------------------|--8---8--8--8---8---8--8--8-|
|---x-----x-------x-----x-x-|----------------------------|
|---x-----x-------x-----x-x-|----------------------------|
|---------------------------|----------------------------|


  G#5/Bb                                   Cm/Bb
   Q     +E   Q.        Q       Q.          E      +Q       E  E
|-16----(16)-16--------16----|-18b20-------18b20==(18)r----16-18-|
|----------------------------|-----------------------------------|
|----------------------------|-----------------------------------|
|----------------------------|-----------------------------------|
|----------------------------|-----------------------------------|
|----------------------------|-----------------------------------|
|
|  W                            W
|-16-------------------------|-----------------------------------|
|----------------------------|-----------------------------------|
|-13-------------------------|-----------------------------------|
|-13-------------------------|-----------------------------------|
|-13-------------------------|-----------------------------------|
|----------------------------|-----------------------------------|
|
|  E  E   E   E   E  E  E  E    E     E  E  E       E    E  E  E
|-11-11--11--11--11-11-11-11-|-11----11-11-11------11---11-11----|
|----------------------------|-----------------------------------|
|--8--8---8---8---8--8--8--8-|--8-----8--8--8-------8----8--8----|
|----------------------------|-----------------------------------|
|----------------------------|-----------------------------------|
|----------------------------|-----------------------------------|


  Eb/Bb
   Q       E    H            E     Q        E   Q        +Q        E
|-15------16---18-----------16-|--15-------16--18-------(18)------15-|
|------------------------------|-------------------------------------|
|------------------------------|-------------------------------------|
|------------------------------|-------------------------------------|
|------------------------------|-------------------------------------|
|------------------------------|-------------------------------------|
|
|  W                              +W
|--6---------------------------|--(6)--------------------------------|
|--8---------------------------|--(8)--------------------------------|
|--8---------------------------|--(8)--------------------------------|
|--8---------------------------|--(8)--------------------------------|
|------------------------------|-------------------------------------|
|------------------------------|-------------------------------------|
|
|  E  +E   E    E   E  E  E  E     E    E   E   E    E    E    E   E
|-11-(11)-11--(11)-11-11-11--x-|-(11)-(11)-11-(11)-(11)--11--(11)-11-|
|------------------------------|-------------------------------------|
|--8--(8)-(8)---8---8--8--8--x-|---8----8---8---8----8----8----8---8-|
|------------------------------|-------------------------------------|
|------------------------------|-------------------------------------|
|------------------------------|-------------------------------------|


  G#/Bb
   Q.              E      +Q         Q           +E     Q.          E      +Q.
|-18b20-----------18b20==(18)r------18b20=====|=(18)r--18b20-------18b20==(18)r\--------|
|---------------------------------------------|-----------------------------------------|
|---------------------------------------------|-----------------------------------------|
|---------------------------------------------|-----------------------------------------|
|---------------------------------------------|-----------------------------------------|
|---------------------------------------------|-----------------------------------------|
|
|  W                                             +W
|--8------------------------------------------|--(8)------------------------------------|
|--9------------------------------------------|--(9)------------------------------------|
|--8------------------------------------------|--(8)------------------------------------|
|--8------------------------------------------|--(8)------------------------------------|
|---------------------------------------------|-----------------------------------------|
|---------------------------------------------|-----------------------------------------|
|
|  E      E    E   E       E     E   E      E     E     E     E  E  E       E     E  E
|-11----(11)-(11)-11------11---(11)-11-----11-|--11---(11)---11-11-11-----(11)---11-11--|
|---------------------------------------------|-----------------------------------------|
|--8------8----8---8-------8-----8---8------8-|---8-----8-----8--8--8-------8-----8--8--|
|---------------------------------------------|-----------------------------------------|
|---------------------------------------------|-----------------------------------------|
|---------------------------------------------|-----------------------------------------|


  Wah/Whammy Mayhem
         Bbmadd11/Eb
                                       ~~~~~~~~
    W                         E  E  E  Q   +E   Q
||-------------------------|-----------------------|
||-------------------------|-----------------------|
||-------------------------|-----------------------|
||-------------------------|-11----11-13--(13)-11s=|
||-------------------------|----13-----------------|
||-------------------------|-----------------------|
|
|  Gtr III
|   E  E  E  E  E  E  E  E    W
||-------21----------------|-----------------------|
||-20-21----21-20-21-20-21-|-----------------------|
||--------6----------------|-----------------------|
||--5--6-----6--5--6--5--6-|-----------------------|
||-------------------------|-----------------------|
||-------------------------|-----------------------|
|
|  Gtr II
|   Q     E  Q     E  Q       W
||-------11-------11-------|-----------------------|
||-------14-------14-------|-----------------------|
||-------15-------15-------|-----------------------|
||-------13-------13-------|-----------------------|
||-------------------------|-----------------------|
||-------------------------|-----------------------|


        Bbmadd11/Eb
                                    ~~
   E  E  E  E  E  E E E    E  E  E  Q   E  Q
|-----------------------|----------------------|
|-------------------7---|----------------------|
|-------------------6---|------------------6\--|
|--6s=8--8s=6--6s=8-----|-11----11-13--11\-----|
|-----------------------|----13----------------|
|-----------------------|----------------------|
|
|  E  E  E  E  E  E Q      W
|-------21--------------|----------------------|
|-20-21----21-20--------|----------------------|
|--------6--------------|----------------------|
|--5--6-----6--5--------|----------------------|
|-----------------------|----------------------|
|-----------------------|----------------------|
|
|  Q     E  Q     E Q      W
|-------11-------11-----|----------------------|
|-------14-------14-----|----------------------|
|-------15-------15-----|----------------------|
|-------13-------13-----|----------------------|
|-----------------------|----------------------|
|-----------------------|----------------------|


        Bbmadd11/Eb
                                      ~~~~~~~~
   W                         E  E  E  Q   +E   Q
|-------------------------|-----------------------|
|-------------------------|-----------------------|
|-------------------------|-----------------------|
|-------------------------|-11----11-13--(13)-11s=|
|-------------------------|----13-----------------|
|-------------------------|-----------------------|
|
|  E  E  E  E  E  E  E  E    W
|-------21----------------|-----------------------|
|-20-21----21-20-21-20-21-|-----------------------|
|--------6----------------|-----------------------|
|--5--6-----6--5--6--5--6-|-----------------------|
|-------------------------|-----------------------|
|-------------------------|-----------------------|
|
|  Q     E  Q     E  Q       W
|-------11-------11-------|-----------------------|
|-------14-------14-------|-----------------------|
|-------15-------15-------|-----------------------|
|-------13-------13-------|-----------------------|
|-------------------------|-----------------------|
|-------------------------|-----------------------|


        Bbmadd11/Eb      C#5   Eb5
   E  E  E  E  E  E Q    E E E  E  +H        +W
|----------------------|------------------|---------|
|----------------------|------------------|---------|
|----------------------|------------------|---------|
|--6s=8--8s=6--6s=8----|-6---6--8--(8)----|--(8)----|
|----------------------|-4---4--6--(6)----|--(6)----|
|----------------------|------------------|---------|
|
|  E  E  E  E  E  E Q    E E E  E  +H        +W
|-------21-------------|------------------|---------|
|-20-21----21-20-------|------------------|---------|
|--------6-------------|------------------|---------|
|--5--6-----6--5-------|-6---6--8--(8)----|--(8)----|
|----------------------|-4---4--6--(6)----|--(6)----|
|----------------------|------------------|---------|
|
|  Q     E  Q     E Q    E E E  E  +H        +W
|-------11-------11----|-------11-(11)----|-(11)----|
|-------14-------14----|-------11-(11)----|-(11)----|
|-------15-------15----|-6---6--8--(8)----|--(8)----|
|-------13-------13----|-6-8-6--8--(8)----|--(8)----|
|----------------------|-4-8-4--6--(6)----|--(6)----|
|----------------------|---6--------------|---------|


  Relax
                       ~~~~~~~~~~~~~~~~~~
    E   E  E  E  E  E  Q     +H      +Q   Q
||------------------------:------------------:
||------------------------:------------------:
||------------------------:------------------:
||-----11-----------------:------------------:
||--------13-12-11----13--:-(13)----(13)-----:
||-----------------14-----:------------------:
|
|  Gtr II
|  +W                        +W
||------------------------:------------------:
||------------------------:------------------:
||-(8)--------------------:--(8)-------------:
||-(8)--------------------:--(8)-------------:
||-(6)--------------------:--(6)-------------:
||------------------------:------------------:


                                          "Into" Darling Nikki
    E   E E S  E.  Q   +E     +W            W
|--------------------------:-------------:--------*|
|--------------------------:-------------:--------*|
|--------------------------:-------------:--------*|
|--------------------------:-------------:--------*|
|-/13--11-9-9h11-----------:-------------:--------*|
|-----------------11--(11)-:-(11)--------:--------*|
|
|  +W                         +W           +W
|--------------------------:-------------:--------*|
|--------------------------:-------------:--------*|
|--(8)---------------------:--(8)--------:-(8)----*|
|--(8)---------------------:--(8)--------:-(8)----*|
|--(6)---------------------:--(6)--------:-(6)----*|
|--------------------------:-------------:--------*|




--------------------------------------------------------------------------------


Duration Legend
---------------
W - whole; H - half; Q - quarter; E - 8th; S - 16th; T - 32nd; X - 64th; a - acciaccatura
+ - note tied to previous; . - note dotted; .. - note double dotted
Uncapitalized letters represent notes that are staccato (1/2 duration)
Irregular groupings are notated above the duration line
Duration letters will always appear directly above the note/fret number it represents the
duration for.  Duration letters with no fret number below them represent rests.  Multi-
bar rests are notated in the form Wxn, where n is the number of bars to rest for.  Low
melody durations appear below the staff

Tablature Legend
----------------
 h   - hammer-on
 p   - pull-off
 b   - bend
 pb  - pre-bend
 r   - bend release (if no number after the r, then release immediately)
 /\  - slide into or out of (from/to "nowhere")
 s   - legato slide
 S   - shift slide
 - natural harmonic
[n]  - artificial harmonic
n(n) - tapped harmonic
 ~   - vibrato
 tr  - trill
 T   - tap
 TP  - trem. picking
 PM  - palm muting
\n/  - tremolo bar dip; n = amount to dip
 \n  - tremolo bar down
 n/  - tremolo bar up
/n\  - tremolo bar inverted dip
 =   - hold bend; also acts as connecting device for hammers/pulls
 <> - volume swell (louder/softer)
 x   - on rhythm slash represents muted slash
 o   - on rhythm slash represents single note slash

Misc Legend
-----------
 |  - bar
||  - double bar
||o - repeat start
o|| - repeat end
*|  - double bar (ending)
 :  - bar (freetime)
 $  - Segno
 &  - Coda
Tempo markers -  = BPM(8/16=s8/s16), where s8 = swing 8ths, s16 = swing 16ths
Comments