Prince - Bambi Chords & Tabs

 

Bambi Chords & Tabs

Prince Chords & Tabs

Version: 1 Type: Tab 0 ratings
1 star 2 stars 3 stars 4 stars 5 stars
comments

Bambi Tab

   
#----------------------------------PLEASE NOTE---------------------------------#
#This file is the author's own work and represents their interpretation of the #
#song. You may only use this file for private study, scholarship, or research. #
#------------------------------------------------------------------------------#
From: michael.terpstra@canrem.com (Michael Terpstra)

Song: Bambi
Artist: Prince

Some easy chords that become very addictive with a lot of distortion.

Intro/Chorus

   Db    Eb    E     E
e--4--I--6--I--7--I--0--I
B--6--I--8--I--9--I--0--I
G--6--I--8--I--9--I--1--I
D--6--I--8--I--9--I--2--I
A--4--I--6--I--7--I--2--I
E--4--I--6--I--7--I--0--I

   Db...Eb.E...E

The lead line e--12----12-11-9~11-7s9

Verse
[ Tab from: http://www.guitartabs.cc/tabs/p/prince/bambi_tab.html ]
  Gb     E
e--2--I--0--I
B--2--I--0--I
G--3--I--1--I
D--4--I--2--I
A--4--I--2--I
E--2--I--0--I

The First Solo
e----------------------------------------------------------------
B----------------------------------------------------------------
G----------------------------------------------------------------
D--8-9-11--8-8-9-11---------------8-9-11--8-8-9-11---------------
A-------------------9-9~11~9-11--------------------9-9-11--------
E---------------------------------------------------------9-11-9-

e----------------------------------------------------------------
B----------------------------------------------------------------
G----------------------------------------------------1---3-------
D--8-9-11--8-8-9-11---------------8-9-11-8-8-9-11----2---4-------
A-------------------9-9-11-9-11----------------------2---4-------
E----------------------------------------------------------------

Any comments/corrections to michael.terpstra@canrem.com
Comments