Primus - Wynonas Big Brown Beaver Chords & Tabs

 

Wynonas Big Brown Beaver Chords & Tabs

Primus Chords & Tabs

Version: 3 Type: Tab 0 ratings
1 star 2 stars 3 stars 4 stars 5 stars
comments

Wynonas Big Brown Beaver Tab

   
#----------------------------------PLEASE NOTE---------------------------------#
#This file is the author's own work and represents their interpretation of the #
#song. You may only use this file for private study, scholarship, or research. #
#------------------------------------------------------------------------------##

                            WYNONA'S BIG BROWN BEAVER
                              As recorded by Primus
                 (From the 1995 Album TALES FROM THE PUNCHBOWL)

Both Guitar and Bass 
           D                  D5/A
      x 5 4 x x x          x 0 0 2 3 x

Gtr I (E A D G B E) - 'light dist'
Gtr II (B E A D G C) - '6stg bass'

 Intro
  Q=132
  N.C.(D)
 4/4
  Gtr I
        ~~   PM        PM| ~~   PM              ~~   PM
   E  E E. S E E E E   E E E. S E E Q      E  E E. S E E E E
|--------------------|------------------|--------------------|
|--------------------|------------------|--------------------|
|-------7--7---------|-----7--7---------|-------7--7---------|
|----/7------7-6-6s7-|---7------7-6-6\--|----/7------7-6-6s7-|
|-/5-----------------|-5----------------|-/5-----------------|
|--------------------|------------------|--------------------|
|
| Gtr II
|  E  E Q    E E Q     E E Q    E E Q      E  E Q    E E Q
|--------------------|------------------|--------------------|
|--7--7------7-7-----|-7-7------7-7-----|--7--7------7-7-----|
|--0--0------0-0-----|-0-0------0-0-----|--0--0------0-0-----|
|--------------------|------------------|--------------------|
|--------------------|------------------|--------------------|
|--------------------|------------------|--------------------|


  PM| ~~                       ~~    PM          PM|  ~~    PM
  E E E. S  E  E  E  E    E  E E. S  E  E E E    E  E E. S  E  E Q
|----------------------|----------------------|----------------------|
|----------------------|----------------------|----------------------|
|-----7--7s12-10-10s11-|-------7--7-----------|-------7--7-----------|
|---7------------------|----/7-------7--6-6s7-|-----7-------7--6-6\--|
|-5--------------------|-/5-------------------|--5-------------------|
|----------------------|----------------------|----------------------|
|
| E E Q     E  E  Q       E  E Q     E  E Q      E  E Q     E  E Q
|----------------------|----------------------|----------------------|
|-7-7-------7--7-------|-11-11------11-11-----|-11-11------11-11-----|
|-0-0-------0--0-------|--0--0-------0--0-----|--0--0-------0--0-----|
|----------------------|----------------------|----------------------|
|----------------------|----------------------|----------------------|
|----------------------|----------------------|----------------------|


        ~~    PM
   E  E E. S  E  E E E    W                   Q     H       Q
|----------------------|--------------------|-----/10------10--|
|----------------------|--------------------|------------------|
|-------7--7-----------|--7/----------------|------------------|
|----/7-------7--6-6S7-|--------------------|------------------|
|-/5-------------------|--------------------|------------------|
|----------------------|--------------------|------------------|
|
|  E  E Q     E  E Q      E   E Q   E  E Q    E E   Q  E E  Q
|----------------------|--------------------|------------------|
|-11-11------11-11-----|-11--11----11-11----|-2-2------2-2-----|
|--0--0-------0--0-----|--0---0-----0--0----|-0-0------0-0-----|
|----------------------|--------------------|------------------|
|----------------------|--------------------|------------------|
|----------------------|--------------------|------------------|


                          G/D
                              ~~~~~~~~~~~
   Q   E  E  E  E  E  E    E  Q.     +H          +H             +E   Q.
|-10--------------------|---------------------|---------------------------||
|------x-10-10s12-10s12-|----12-----(12)------|-(12)-----------(12)-12\---||
|-----------10s12-10s12-|----12-----(12)------|-(12)-----------(12)-12\---||
|-----------------------|-12------------------|---------------------------||
|-----------------------|---------------------|---------------------------||
|-----------------------|---------------------|---------------------------||
|
|                                                     TP   TP    TP
|  E E Q     E  E  Q       E  E  Q    E  E Q      S   E.  +Q     H
|-----------------------|---------------------|---------------------------||
|--2-2-------2--2-------|--2--2-------2--2----|-/21--18--(18)S==21\-------||
|--0-0-------0--0-------|--0--0-------0--0----|---------------------------||
|-----------------------|---------------------|---------------------------||
|-----------------------|---------------------|---------------------------||
|-----------------------|---------------------|---------------------------||


    N.C.
    PM|          PM|                PM|              PM
    E E S S S  S S S E  Q           E E   S  S S S   E  E E  E
||--------------------------------|-------------------------13-|
||o-----3h6-----------------------|-------3h=6--------------13-|
||--------------------------------|----------------------------|
||--0-0-----0h=3-0-0-0------------|-0-0--------0h3---0---------|
||o-------------------------------|---------------------0------|
||--------------------------------|----------------------------|
|
|                       |-3--|
|   E E S S S  S E   E  S  S S  E   E E   E  E E E   E  E
||--------------------------------|----------------------------|
||o---------7h10-------12-10-9----|---------14---------19------|
||--0-0-7h9------0---0---------10-|-0-0-/12----0-0-/17---------|
||--------------------------------|----------------------------|
||o-------------------------------|----------------------------|
||--------------------------------|----------------------------|


                               1.
  PM|          PM               PM|            PM  ~
  E E S S S  S E E  Q           E E   S S  S S E E E E
|-----------------------------|-------------------------||
|-----3h6---------------------|-------3h6--------------o||
|-----------------------------|-------------------------||
|-0-0-----0h=3-0-0------------|-0-0--------0h3-0-0---0--||
|-----------------------------|--------------------3---o||
|-----------------------------|-------------------------||
|
|                   |-3--|
| E E S S S  S E E  S  S S  E   E E   E    E   E E E E
|-----------------------------|-------------------------||
|---------7h10-----12-10-9----|-----------14-----9-0-5-o||
|-0-0-7h9------0-0---------10-|-0-0-/12--------0--------||
|-----------------------------|-------------------------||
|-----------------------------|------------------------o||
|-----------------------------|-------------------------||


  2.
                            Db5
  PM|          PM  ~
  E E  S S S S E E Q    Q    H.               +W
|---------------------|-----10-------------|-(10)-------------------|
|------3h6------------|------9-------------|--(9)-------------------|
|---------------------|------7-------------|--(7)-------------------|
|-0-0------0h3-0-0----|------0-------------|--(0)-------------------|
|------------------3--|--------------------|------------------------|
|---------------------|--------------------|------------------------|
|
| E E  E   E   H        E E  E. S E E E. S     E  E E. S E E E S S
|---------------------|--------------------|------------------------|
|---9-----------------|--------------------|------------------------|
|-0---10---9---7------|-0-0----------------|------------------------|
|---------------------|---------x-5-5----x-|---5--5----x-5-5---x-x--|
|---------------------|--------------------|------------------------|
|---------------------|--------------------|------------------------|


    >
   +W                     +W
|-(10)-----------------|-(10)-----------------------||
|--(9)-----------------|--(9)-----------------------||
|--(7)-----------------|--(7)-----------------------||
|--(0)-----------------|--(0)-----------------------||
|----------------------|----------------------------||
|----------------------|----------------------------||
|
|   E  E E. S E E E. S     E  E S S S S E E S S S S
|----------------------|----------------------------||
|----------------------|----------------------------||
|----------------------|----------------------------||
|---5--5----x-5-5----x-|---5--5-3-3-4-4-5-5-3-3-4-4-||
|----------------------|----------------------------||
|----------------------|----------------------------||


 Verse
  N.C.(D)
  Gtr II
  E E E. S E E E. S   E E E. S E E E S S
|-------------------|--------------------|
|-------------------|--------------------|
|-------------------|--------------------|
|-5-5----x-5-5----x-|-5-5----x-5-5---x-x-|
|-------------------|--------------------|
|-------------------|--------------------|


  E E E. S E E E. S   E E E. S E E S S S S
|-------------------|----------------------|
|-------------------|----------------------|
|-------------------|----------------------|
|-5-5----x-5-5----x-|-5-5----x-5-5-3-3-4-4-|
|-------------------|----------------------|
|-------------------|----------------------|


  E E E. S E E E S S   E E E. S E E E. S
|--------------------|-------------------|
|--------------------|-------------------|
|--------------------|-------------------|
|-5-5----x-5-5---x-x-|-5-5----x-5-5----x-|
|--------------------|-------------------|
|--------------------|-------------------|


  E E E. S E E E. S   E E   E E   Q     Q
|-------------------|-----------------------||
|-------------------|-----/12-0-/17\--/15\--||
|-------------------|-----------------------||
|-5-5----x-5-5----x-|-5-5-------------------||
|-------------------|-----------------------||
|-------------------|-----------------------||


  Gtr I
  PM|          PM|                PM|            PM
  E E S S S  S S S E  Q           E E   S S  S S E E   E  E
|-------------------------------|------------------------13-|
|-----3h6-----------------------|-------3h6--------------13-|
|-------------------------------|---------------------------|
|-0-0-----0h=3-0-0-0------------|-0-0--------0h3-0----------|
|-------------------------------|------------------0--------|
|-------------------------------|---------------------------|
|
| Gtr II
|                     |-3--|
| E E S S S  S E   E  S  S S  E   E E   E    E   E E   E  E
|-------------------------------|---------------------------|
|---------7h10-------12-10-9----|-----------14-----------19-|
|-0-0-7h9------0---0---------10-|-0-0-/12--------0-0-/17----|
|-------------------------------|---------------------------|
|-------------------------------|---------------------------|
|-------------------------------|---------------------------|


  PM|          PM               PM|            PM  ~
  E E S S S  S E E  Q           E E   S S  S S E E E E
|-----------------------------|--------------------------|
|-----3h6---------------------|-------3h6----------------|
|-----------------------------|--------------------------|
|-0-0-----0h=3-0-0------------|-0-0--------0h3-0-0---0---|
|-----------------------------|--------------------3-----|
|-----------------------------|--------------------------|
|
|                   |-3--|
| E E S S S  S E E  S  S S  E   E E   E    E   E E E E
|-----------------------------|--------------------------|
|---------7h10-----12-10-9----|-----------14-----9-0-5---|
|-0-0-7h9------0-0---------10-|-0-0-/12--------0---------|
|-----------------------------|--------------------------|
|-----------------------------|--------------------------|
|-----------------------------|--------------------------|


  PM|          PM|
  E E S S S  S S S E  Q
|-------------------------------|
|-----3h6-----------------------|
|-------------------------------|
|-0-0-----0h=3-0-0-0------------|
|-------------------------------|
|-------------------------------|
|
|                     |-3--|
| E E S S S  S e   E  S  S S  E
|-------------------------------|
|---------7h10-------12-10-9----|
|-0-0-7h9------0---0---------10-|
|-------------------------------|
|-------------------------------|
|-------------------------------|


  PM|            PM           PM|          PM
  E E   S S  S S E E   E  E   E E S S S  S E E  Q
|------------------------13-|------------------------------|
|-------3h6--------------13-|-----3h6----------------------|
|---------------------------|------------------------------|
|-0-0--------0h3-0----------|-0-0-----0h=3-0-0-------------|
|------------------0--------|------------------------------|
|---------------------------|------------------------------|
|
|                                               |-3--|
| E E   E    E   E E   E  E   E E S S S  S E E  S  S S  E
|---------------------------|------------------------------|
|-----------14-----------19-|---------7h10-----12-10-9-----|
|-0-0-/12--------0-0-/17----|-0-0-7h9------0-0---------10--|
|---------------------------|------------------------------|
|---------------------------|------------------------------|
|---------------------------|------------------------------|


                                                  Db5
  PM|          PM   ~~~   PM|           ~       PM
  E E S  S S S E E  Q     E E S E S E E Q     E E  H.
|-----------------------|-------------------|-----10--------------|
|-----3h=6--------------|-------------------|------9--------------|
|-----------------------|---0---------------|------7--------------|
|-0-0------0h3-0-0------|-0---3-3-2-1-0-----|---0--0--------------|
|-------------------3---|---------------4---|---------------------|
|-----------------------|-------------------|---------------------|
|
| E E S  S E   E E  Q     E E Q     Q   E E   E E  E. S E E E. S
|-----------------------|-------------------|---------------------|
|---9-0----------7------|-----------------5-|---------------------|
|-0-----10-9---7---10\--|-0-0-------------5-|-0-0-----------------|
|-----------------------|-------------------|---------x-5-5----x--|
|-----------------------|-------------------|---------------------|
|-----------------------|-------------------|---------------------|


                             >
   +W                       +W
|-(10)-------------------|-(10)--------------------|
|--(9)-------------------|--(9)--------------------|
|--(7)-------------------|--(7)--------------------|
|--(0)-------------------|--(0)--------------------|
|------------------------|-------------------------|
|------------------------|-------------------------|
|
|   E  E E S S E E E S S     E  E E. S E E S S S S
|------------------------|-------------------------|
|------------------------|-------------------------|
|------------------------|-------------------4-4-4-|
|---5--5---x-x-5-5---x-x-|---5--5----x-5-5---------|
|------------------------|-------------------------|
|------------------------|-------------------------|


   +W
|-(10)-------------------------|
|--(9)-------------------------|
|--(7)-------------------------|
|--(0)-------------------------|
|------------------------------|
|------------------------------|
|
|   E  S S +S  S E S S S S E E
|------------------------------|
|------------------x-4-4-5-6-7-|
|---5--x-6-(6)-x-7-------------|
|------------------------------|
|------------------------------|
|------------------------------|


 Verse
  N.C.(D)
  Gtr II
  E E E S S E E E. S   E E E S S E E Q
|--------------------|------------------|
|--------------------|------------------|
|--------------------|------------------|
|-5-5---x-x-5-5----x-|-5-5---x-x-5-5----|
|--------------------|------------------|
|--------------------|------------------|


  Gtr I
  H        E E Q        Q   H         Q
|---------------------|------------------|
|---------------------|------------------|
|---------------------|------------------|
|------------6-6b7====|=6---6r--------4--|
|---------------------|---------------5--|
|---------------------|------------------|
|
| Gtr II
| E E E. S E E E.   S   E E E. S E E  Q
|---------------------|------------------|
|---------------------|--------------11--|
|---------------------|---------------0--|
|-5-5----x-5-5------x-|-5-5----x-5-------|
|---------------------|------------------|
|---------------------|------------------|


  W                   Q    E   E        +E   E  +Q
|-------------------|-------------------------------------|
|-------------------|-----15--15b17====(15)-15r(15)-------|
|-------------------|-------------------------------------|
|-------------------|-------------------------------------|
|-------------------|-------------------------------------|
|-------------------|-------------------------------------|
|
| E E E. S E E E. S   E E  E.        S   E   E   S  S S S
|-------------------|-------------------------------------|
|-------------------|-------------------------------------|
|-------------------|-------------------------------------|
|-5-5----x-5-5----x-|-5-5------------x---5---5---3--3-4-4-|
|-------------------|-------------------------------------|
|-------------------|-------------------------------------|


   +H         H          H          Q   E  E
|----------------------|------------------10-----||
|-(15)-----------------|------------------13b15==||
|----------------------|-------------------------||
|----------------------|---------------10--------||
|----------------------|-------------------------||
|----------------------|-------------------------||
|
|   E  E E. S E E E. S   E E  E   E Q   Q
|----------------------|-------------------------||
|----------------------|-----(7)s14-0------------||
|----------------------|----------------0--------||
|---5--5----x-5-5----x-|-5-5---------------------||
|----------------------|-------------------------||
|----------------------|-------------------------||


 Guitar Solo 1
  N.C.
          ~~~                ~~~~~~                               ~~~~~~~~~~~~~~~~
   +Q     Q       a   +Q     Q                +E    Q.            Q     Q
|-(10)----------------------10-------------|-(10)----------------10--------------|
|-(13)---13-----(13)r(13)---13b15==========|=(13)r-13b15=========13----13b15=====|
|------------------------------------------|-------------------------------------|
|------------------------------------------|-------------------------------------|
|------------------------------------------|-------------------------------------|
|------------------------------------------|-------------------------------------|
|
|                            |---3----|
|   E  E  S S S   S    E  E  S      S S  E     E    E       E  E  E E   E      E
|------------------------------------------|-------------------------------------|
|-------------7h=10---------12-----10-9----|------------------14--------------19-|
|---0--0--7h9----------0--0-------------10-|---0----0-----/12-----0-0-/17--------|
|------------------------------------------|-------------------------------------|
|------------------------------------------|-------------------------------------|
|------------------------------------------|-------------------------------------|


 ~~~~~~~~~~~~~~~~~~~~~~~~~~~~~~~~~~~~~~~~~~~~~~~~
   |---3---|  |----3----|     |---3---|  |-----3-----|
   E  E    E  E    E    E     E  E    E  E     E     E    +H            Q         Q
|-10-10---10-10---10---10----10-10---10----------------|-------------------------------|
|-13-13---13-13---13---13----13-13---13-13----13----13r|=(13)----------13pb14====13r---|
|------------------------------------------------------|-------------------------------|
|------------------------------------------------------|-------------------------------|
|------------------------------------------------------|-------------------------------|
|------------------------------------------------------|-------------------------------|
|
|                                        |--3--|
|  E    E     S S    S     S  E    E     S  S  S  E        E  E   E  E  E      E  E  E
|------------------------------------------------------|-------------------------------|
|--------------------7h===10------------12-10--9-------|------------14---------9--0--5-|
|--0----0-----7h9-------------0----0-------------10----|---0--0-/12-----0--------------|
|------------------------------------------------------|-------------------------------|
|------------------------------------------------------|-------------------------------|
|------------------------------------------------------|-------------------------------|


                                 ~~~~~~~~~~~~~~~
   E  Q         +E     +E.    S  Q
|----------------------------------------------|
|----13--------(13)---(13)---------------------|
|-12-12b14-----(12)---(12)---12-12b14==========|
|----------------------------------------------|
|----------------------------------------------|
|----------------------------------------------|
|
|                                |---3----|
|  E  E    S S   S  S   e  E     S      S S  E
|----------------------------------------------|
|----------------7h10-----------12-----10-9----|
|--0--0----7h9----------0--0----------------10-|
|----------------------------------------------|
|----------------------------------------------|
|----------------------------------------------|


 ~~~~~~~~~~~~~~~~~~~                                                 ~~
                                             |--3---|     |---3---|
   Q     E  E   +Q      E      E     +E   E  Q      E     E  E    E  Q
|---------------------------------|--------------------------------------------|
|---------------------------------|--------------------------------------------|
|-12----12-12r-(12)----12b14==12r-|-(12)-12------------------------------------|
|---------------------------------|---------12-----12----12-12---10-10---------|
|---------------------------------|--------------------------------------------|
|---------------------------------|--------------------------------------------|
|
|                                                                    |-3--|
|  E E   E  E    E  E   E      E      E   E  S S S     S  E    E     S  S S  E
|---------------------------------|--------------------------------------------|
|----------14-----------------19--|--------------7h===10------------12-10-9----|
|--0-0-/12-------0--0-/17---------|---0---0--7h9----------0----0------------10-|
|---------------------------------|--------------------------------------------|
|---------------------------------|--------------------------------------------|
|---------------------------------|--------------------------------------------|


                                                                    ~~
   E  Q         +E       +Q           Q      +Q.       E    E  +E   Q
|------------------------------------13---|-(13)--------------------------|
|----13--------(13)b15==(13)--------------|-----------13---13r(13)-13-----|
|-----------------------------------------|-------------------------------|
|-10--------------------------------------|-------------------------------|
|-----------------------------------------|-------------------------------|
|-----------------------------------------|-------------------------------|
|
|     |-3--|              |--3--|
|  E  S  S S E   E        S   S S  E  E E     E  E E.    S  E   E   S E S
|-----------------------------------------|-------------------------------|
|-------10-9-9---9-------12--10-9---------|-------------------------------|
|--0-12---------------------------10--9-7-|-------------------------------|
|-----------------------------------------|---5--5-5-----5--5---5-----5-5-|
|-----------------------------------------|-------------------------------|
|-----------------------------------------|-------------------------------|


    ~~~~                  ~~~~~~~~
   +Q     S  S  E    +S   E.    Q
|-----------------------------------|
|-(13)---10h13-10---(10)-10----10---|
|-----------------------------------|
|-----------------------------------|
|-----------------------------------|
|-----------------------------------|
|
|   E  E  S  E    S   E      E  E E
|-----------------------------------|
|-----------------------------------|
|-----------------------------------|
|---5--5-----5----5---3------5--3-5-|
|-----------------------------------|
|-----------------------------------|


                    ~~~~~~~~~
         |---3---|
   E  E  S  S    S  E    +E.    S  S  S  S  S
|---------------------------------------------|
|-10-10-10h13---------------------------13----|
|---------------12-12---(12)---12-12-10-------|
|------------------------------------------10-|
|---------------------------------------------|
|---------------------------------------------|
|
|  E  E  S    E       S   E  E     S  E     S
|---------------------------------------------|
|---------------------------------------------|
|---------------------------------------------|
|--5--5-------5-------5---5--5--------5-----5-|
|---------------------------------------------|
|---------------------------------------------|


   E  E  S  S  S  S  S S  S  S S  S  E
|--------------------------------------|
|--------------------------------------|
|--------------------------------------|
|-10-10-12p10--------------------------|
|-------------12-11-10-8-------8-10s12-|
|------------------------10-10---------|
|
|  E  E  S  E     S  E    E    E     E
|--------------------------------------|
|--------------------------------------|
|--------------------------------------|
|--5--5-----5-----5--3----5----3-----5-|
|--------------------------------------|
|--------------------------------------|


                                        ~~
                  |---3---|
   S  E    S E    S  S    S  E  E  E    E
|----------------12-------------------------|
|-------------------12----------------------|
|---------10-------------10-------12s==13---|
|-10h12---------------------10-12-----------|
|-------------------------------------------|
|-------------------------------------------|
|
|  E    E    S E       S     E  E  S E    S
|-------------------------------------------|
|-------------------------------------------|
|-------------------------------------------|
|--5----5------5-------5-----5--5----5----5-|
|-------------------------------------------|
|-------------------------------------------|


                     ~~~~~~~~~~~~
   +E.    S  E    S  S  +Q     Q
|----------------------------------|
|-----------------------------13---|
|-(13)p==12-12---13-14-(14)--------|
|----------------------------------|
|----------------------------------|
|----------------------------------|
|
|   E  E     S E     S   E  E  E E
|----------------------------------|
|----------------------------------|
|----------------------------------|
|---5--5-------5-----5---3--5--3-5-|
|----------------------------------|
|----------------------------------|


                   ~~~~
   |---3---|
   E  E    E      +Q       +S    E.     E    E
|------------------------------------------------|
|----13---15b16==(15)-----(15)r-15\--------------|
|-14-----------------------------------/9s==11---|
|-------------------------------------/10s==12---|
|------------------------------------------------|
|------------------------------------------------|
|
|  E    E          S  E S   E       E   S E    S
|------------------------------------------------|
|------------------------------------------------|
|------------------------------------------------|
|--5----5-------------5-5---5-------5-----5----x-|
|------------------------------------------------|
|------------------------------------------------|


                                                   ~~
   +Q     E  E  E  E  E  E    E  E  E    E   E  E  Q
|--------------------------|-----------------------------|
|--------------------------|-----------------------------|
|-(11)---11-11-11-11-11-11-|-11-11-11---11--------10-----|
|-(12)---12-12-12-12-12-12-|-12-12-12---12-----12--------|
|--------------------------|-----------------------------|
|--------------------------|-----------------------------|
|
|   E  E  Q     E  E  Q       E  E  S E    S E  E  S E S
|--------------------------|-----------------------------|
|--------11----------11----|-----------------------------|
|-<12>-0-12--------0-12----|-----------------------------|
|--------------------------|--5--5----5----5-5--5----5-x-|
|--------------------------|-----------------------------|
|--------------------------|-----------------------------|


                 ~~~~~~~~
    E   S  S  S  E.  +S   S  S  S  S  S  S  S
|---------------------------------------------|
|---------------------------------------------|
|---------------12--(12)-10----10-12-10----10-|
|--12--12-12-10-------------12----------12----|
|---------------------------------------------|
|---------------------------------------------|
|
|   E   E     Q       E      E     Q
|---------------------------------------------|
|------------11-------------------11----------|
|-<12>--0----12--------------0----12----------|
|---------------------------------------------|
|---------------------------------------------|
|---------------------------------------------|


   S  S  S  S  S  S  E  S  S  S  S  E  E
|----------------------------------------|
|-------10----10-12p10-10----------13----|
|-12-13----13-------------13p12p10----12-|
|----------------------------------------|
|----------------------------------------|
|----------------------------------------|
|
|  E     E     Q        E     E     Q
|----------------------------------------|
|-------------11-------------------11----|
|--------0----12--------------0----12----|
|----------------------------------------|
|----------------------------------------|
|----------------------------------------|


   ~~~
   E.      S  E             E           Q.        E
|--------------------------------------------------------------------|
|--------------------------------------------------------------------|
|-10------12-12b13---------------------------------------------------|
|--------------------------------------------------------------------|
|--------------------------------------------------------------------|
|--------------------------10----------10--------10------------------|
|
|             |----------6----------|         |---------6---------|
|  E   E      S     S   S   S   S   S   E  E  S   S   S   S   S   S
|--------------------------------------------------------------------|
|--------------------------------------------------------------------|
|------------<4>---<4>-<4>-<4>-<4>-<4>--x--x-<5>-<5>-<5>-<5>-<5>-<5>-|
|-<5>-<5>------------------------------------------------------------|
|--------------------------------------------------------------------|
|--------------------------------------------------------------------|


   Q       H.
|------------------------------------------------------------|
|------------------------------------------------------------|
|------------------------------------------------------------|
|------------------------------------------------------------|
|------------------------------------------------------------|
|-10------10-------------------------------------------------|
|
|          |---------6---------|      |---------6---------|
|  E   E   S   S   S   S   S   S  Q   S   S   S   S   S   S
|------------------------------------------------------------|
|---------<4>-<4>-<4>-<4>-<4>-<4>----------------------------|
|-<4>-<4>----------------------------------------------------|
|------------------------------------<5>-<5>-<5>-<5>-<5>-<5>-|
|------------------------------------------------------------|
|------------------------------------------------------------|

[ Tab from: http://www.guitartabs.cc/tabs/p/primus/wynonas_big_brown_beaver_tab_ver_3.html ]
   +W                                                            Q         Q   Q       Q
|------------------------------------------------------------|-------------------------------||
|------------------------------------------------------------|-------------------------------||
|------------------------------------------------------------|------------10\---------10\----||
|------------------------------------------------------------|-------------------------------||
|------------------------------------------------------------|-------------------------------||
|-(10)-------------------------------------------------------|--10---------------------------||
|
|        |---------6---------|        |---------6---------|
|   Q    S   S   S   S   S   S   Q    S   S   S   S   S   S     +E     E   Q   E   E   E. S
|------------------------------------------------------------|-------------------------------||
|------------------------------------------------------------|------------11----------11\----||
|-------<4>-<4>-<4>-<4>-<4>-<4>-<4>--<5>-<5>-<5>-<5>-<5>-<5>-|-(<5>)-<12>-12-----<12>-12\----||
|------------------------------------------------------------|----------------------------5--||
|------------------------------------------------------------|-------------------------------||
|------------------------------------------------------------|-------------------------------||


  Q     H.               +Q    E   E     E  E  E  E
|-----/10-------------|-(10)--------------------------|
|---------------------|--------x--12\---10s12-10s12---|
|---------------------|-----------------10s12-10s12---|
|---------------------|-------------------------------|
|---------------------|-------------------------------|
|---------------------|-------------------------------|
|
| E E   E. S E E E. S     E  E E.     S  E  E  E.   S
|---------------------|-------------------------------|
|---------------------|-------------------------------|
|---------------------|-------------------------------|
|-5-5------5-5-5----0-|---5--5--------5--5--5-------5-|
|---------------------|-------------------------------|
|---------------------|-------------------------------|


  G/D
   E  Q.       +H
|-------------------------|
|----12-------(12)--------|
|----12-------(12)--------|
|-12----------------------|
|-------------------------|
|-------------------------|
|
|  E  E  E. S   E  E E. S
|-------------------------|
|-------------------------|
|-------------------------|
|--5--5-----5---5--5----5-|
|-------------------------|
|-------------------------|


                        N.C.(D)
   +H         Q   E E     W                    +Q    E   E     E  E  E  E
|-------------------7-|-/10-----------------|-(10)--------------------------|
|-(12)----------------|---------------------|--------x--12\---10s12-10s12---|
|-(12)----------------|---------------------|-----------------10s12-10s12---|
|---------------------|---------------------|-------------------------------|
|---------------------|---------------------|-------------------------------|
|---------------------|---------------------|-------------------------------|
|
|   E  E E. S E E Q       E E E. S E E E. S     E  E E.     S  E  E  E.   S
|---------------------|---------------------|-------------------------------|
|---------------------|---------------------|-------------------------------|
|---------------------|---------------------|-------------------------------|
|---5--5----5-5-5-3---|---5-5----5-5-5----5-|---5--5--------5--5--5-------5-|
|---------------------|---------------------|-------------------------------|
|---------------------|---------------------|-------------------------------|


  G/D
   E  Q.       +Q     Q       +W
|--------------------------|-----------------------------------||
|----12-------(12)---12----|-(12)------------------------------||
|----12-------(12)---12----|-(12)------------------------------||
|-12-----------------------|-----------------------------------||
|--------------------------|-----------------------------------||
|--------------------------|-----------------------------------||
|
|  E  E  E. S   E  E  E. S     E.    S E.    S E.    S E.    S
|--------------------------|-----------------------------------||
|--------------------------|-----------------------------------||
|--------------------------|-----------------------------------||
|--5--5-----5---5--5-----5-|---3b3.5-5-3b3.5-5-3b3.5-0-3b3.5-0-||
|--------------------------|-----------------------------------||
|--------------------------|-----------------------------------||


 Verse
  N.C.(D)
  Gtr II
  E E E S S E E E. S   E E E S S E E Q
|--------------------|------------------|
|--------------------|------------------|
|--------------------|------------------|
|-5-5---x-x-5-5----x-|-5-5---x-x-5-5----|
|--------------------|------------------|
|--------------------|------------------|


                                   D
  Gtr I
  W                   H        Q    Q
                                    |
                                    /

  Gtr II
  E E E. S E E E. S   E E E. S E E  Q
|-------------------|------------------|
|-------------------|--------------11--|
|-------------------|---------------0--|
|-5-5----x-5-5----x-|-5-5----x-5-------|
|-------------------|------------------|
|-------------------|------------------|


  E E E. S E E E. S   E E E. S E E S S S S
|-------------------|----------------------|
|-------------------|----------------------|
|-------------------|----------------------|
|-5-5----x-5-5----x-|-5-5----x-5-5-3-3-4-4-|
|-------------------|----------------------|
|-------------------|----------------------|


  E E E. S E E S S S S   E E E. S E E  Q
|----------------------|------------------|
|----------------------|--------------11--|
|----------------------|---------------0--|
|-5-5----x-5-5-3-3-4-4-|-5-5----x-5-------|
|----------------------|------------------|
|----------------------|------------------|


  D5/A
  Gtr I
  Q  Q  E E Q    E E Q  E E Q
|--------------|---------------|
|-3-----3-3----|-3-3----3-3----|
|-2-----2-2----|-2-2----2-2----|
|-0-----0-0----|-0-0----0-0----|
|-0-----0-0----|-0-0----0-0----|
|--------------|---------------|
|
| Gtr II
| H     E E Q    E E Q  E E Q
|--------------|---------------|
|-------2-2----|-2-2----2-2----|
|-------0-0----|-0-0----0-0----|
|--------------|---------------|
|--------------|---------------|
|--------------|---------------|


  E E Q  E E Q    E E Q  Q    E.  S
|---------------|----------------------||
|-3-3----3-3----|-3-3----3-------13b15-||
|-2-2----2-2----|-2-2----2-------------||
|-0-0----0-0----|-0-0----0-------------||
|-0-0----0-0----|-0-0----0-------------||
|---------------|----------------------||
|
| E E Q  E E Q    E E Q  E E  Q
|---------------|----------------------||
|-2-2----2-2----|-2-2----2-0-12\-------||
|-0-0----0-0----|-0-0----0-------------||
|---------------|----------------------||
|---------------|----------------------||
|---------------|----------------------||


 Guitar Solo 2
  N.C.
   +S   S  E  S  S  E     E     S  S  +S      S    E
|------14----------------------10--------------------|
|-(13)----13-10----10--------------------------------|
|---------------13-------10b12----10-(10)----10------|
|-------------------------------------------------12-|
|----------------------------------------------------|
|----------------------------------------------------|
|
|                                      |---3----|
|   E      E  S  S  S  S  e     E      S   S    S  E
|----------------------------------------------------|
|-------------------7h10--------------12--10----9----|
|---0------0--7h=9--------0-----0-----------------10-|
|----------------------------------------------------|
|----------------------------------------------------|
|----------------------------------------------------|


   E  E   S  S  E   E  S  S  +S   S  E
|--------------------------------------|
|---------------------13-15-(15)----15-|
|----10--11----10-/14------------14----|
|-12--------12-------------------------|
|--------------------------------------|
|--------------------------------------|
|
|  E  E   E     E   E  E      E      E
|--------------------------------------|
|--------------14-------------------19-|
|--0--0-/12---------0--0----/17--------|
|--------------------------------------|
|--------------------------------------|
|--------------------------------------|


    Q    S  S  e     S  T  T  S  S  S     T    T  S  S
|------------------------------------------------------|
|-\10-----------------------------------------------13-|
|-------13-12-11-------10-11-12-12-12----13---14-14----|
|-------------------12---------------------------------|
|------------------------------------------------------|
|------------------------------------------------------|
|
|                                   |---3---|
|   e E  S  S  S  S  e        E     S  S    S     E
|------------------------------------------------------|
|--------------7h10----------------12-10----9----------|
|---0-0--7h=9--------0--------0------------------10----|
|------------------------------------------------------|
|------------------------------------------------------|
|------------------------------------------------------|


   S  S  S  S   S  S  S  S  S  S  S  S  S  S  E
|--------------13----13-14-15-13----13----------|
|----13-14-15-----15-------------15----15-14-13-|
|-14--------------------------------------------|
|-----------------------------------------------|
|-----------------------------------------------|
|-----------------------------------------------|
|
|  E     E      E     E     E     E     E     E
|-----------------------------------------------|
|--------------------14-----------9-----0-----5-|
|--0-----0----/12-----------0-------------------|
|-----------------------------------------------|
|-----------------------------------------------|
|-----------------------------------------------|


   S  S  S  S  S  S  S  S  S  S  S  S  S     S    S  S
|----------13------------------------------------------|
|-13-14-15----15-14-13----13---------------------13----|
|----------------------14----14-13-12-13----14------14-|
|------------------------------------------------------|
|------------------------------------------------------|
|------------------------------------------------------|
|
|                                      |---3---|
|  E     E     S  S  S  S  e     E     S  S    S  E
|------------------------------------------------------|
|--------------------7h10-------------12-10----9-------|
|--0-----0-----7h=9--------0-----0---------------10----|
|------------------------------------------------------|
|------------------------------------------------------|
|------------------------------------------------------|


   S  S   S  S   S  S  S  S  S  S  S  S   S S  E
|------------------------------------------------|
|-13---------------------------------------------|
|----12\----10--12-10----10----------------------|
|--------12-----------12----12-10----------------|
|---------------------------------12-11--10-8--9-|
|------------------------------------------------|
|
|  E      E      E     E     E     E      E    E
|------------------------------------------------|
|---------------------14----------------------19-|
|--0------0----/12-----------0-----0----/17------|
|------------------------------------------------|
|------------------------------------------------|
|------------------------------------------------|


   S S a  S  S  S  S  S  S  S  S  S  S  S     S    S  S
|-------------------------------------------------------|
|-------------------------------------------------------|
|----------------------------------------------------10-|
|-----------------------10----10-11----10----12---12----|
|----8-8s10-10-10-11-12----12-------12------------------|
|-10----------------------------------------------------|
|
|                                       |---3---|
|  e      E     S  S  S  S  e     E     S  S    S  E
|-------------------------------------------------------|
|---------------------7h10-------------12-10----9-------|
|--0------0-----7h=9--------0-----0---------------10----|
|-------------------------------------------------------|
|-------------------------------------------------------|
|-------------------------------------------------------|


   A  E  S  A  S  +S   S  E    E    E    E     E
|--------------------------------------------------|
|----10-10----10-(10)-10-10---10---10---------(5)/-|
|-10h11-11-10h11-(11)-11-11---10---10---10\--------|
|--------------------------------------------------|
|--------------------------------------------------|
|--------------------------------------------------|
|
|     E  S     S   S   S  S S  S S  S S  S  S  E
|--------------------------------------------------|
|--------9-----0---5---9--0-5--9-0--5-9--0--5--4---|
|-----0--------------------------------------------|
|--------------------------------------------------|
|--------------------------------------------------|
|--------------------------------------------------|


    E   E  E   E    E.    S  S  S  E
|-(12)S22-22--22---22----22-22-22-22---|
|--------------------------------------|
|--------------------------------------|
|--------------------------------------|
|--------------------------------------|
|--------------------------------------|
|
|   E   E  E.    S  E  E     S  E    S
|--------------------------------------|
|--------------------------------------|
|--------------------------------------|
|---5---5--5-----5--5--5--------5----5-|
|--------------------------------------|
|--------------------------------------|


   E  E  S  E  S  E  E  E  E    E  S  S  S  S  E    E  E  S  S  S  S
|-22-22-22-22-22-22----------|---------------------13----13-14-15-14-|
|-------------------13-14-15-|-15-13-14-14-14-15------15-------------|
|----------------------------|---------------------------------------|
|----------------------------|---------------------------------------|
|----------------------------|---------------------------------------|
|----------------------------|---------------------------------------|
|
|  E  E  S  E  S  E  E  E  E    E  E     S  E    S  E  E  S  E     S
|----------------------------|---------------------------------------|
|----------------------------|---------------------------------------|
|----------------------------|---------------------------------------|
|--5--5-----5--5--3--5--3--5-|--5--5--------5----5--5--5-----5-----5-|
|----------------------------|---------------------------------------|
|----------------------------|---------------------------------------|


   S  S  E  E    S  S  +S   S  A  E  E  E
|-13----13--------------------------------|
|----15----15---13-13-(13)-14-13s15-15-15-|
|-----------------------------------------|
|-----------------------------------------|
|-----------------------------------------|
|-----------------------------------------|
|
|  E     E  S E     S   E         E  E  E
|-----------------------------------------|
|-----------------------------------------|
|-----------------------------------------|
|--5-----5----5-----5---3---------5--3--5-|
|-----------------------------------------|
|-----------------------------------------|


   E     E  E    S  S      +S    S  E  E    E         E  E     E    S  S  +S   S  E  E  E
|--------------------------------------------------|-----------------------------------------|
|-------15------15--------------15----15-----------|-15-------15------15-(15)----15-15-------|
|--------------------------------------------------|-----------------------------------------|
|-17b18----17------17b18==(17)r----17------17b18---|----17b18------17---------17-------17\---|
|--------------------------------------------------|-----------------------------------------|
|--------------------------------------------------|-----------------------------------------|
|
|  E     E  S E     S       E       E  S E       S    E  E     S E     S   E      E  E  E
|--------------------------------------------------|-----------------------------------------|
|--------------------------------------------------|-----------------------------------------|
|--------------------------------------------------|-----------------------------------------|
|--5-----5----5-----5-------5-------5----5-------5-|--5--5-------5-----5---3------5--3--5----|
|--------------------------------------------------|-----------------------------------------|
|--------------------------------------------------|-----------------------------------------|


   S  S  S  S  S  S  S  S  S  S  S  S  S  S  E
|-------10-------10-------10---------------------|
|------------------------------------------------|
|-10h11----10h11----10h11----10------------------|
|-------------------------------12p10----10-10---|
|-------------------------------------12---------|
|------------------------------------------------|
|
|  E     E     S  E     S  E     E     S  E    S
|------------------------------------------------|
|------------------------------------------------|
|------------------------------------------------|
|--5-----5--------5-----5--5-----5--------5----x-|
|------------------------------------------------|
|------------------------------------------------|


    Q     E  S  S  +S   S  E  E  E
|----------------------------------|
|----------------------------------|
|--------11----11-(11)----11----11-|
|--12-------12---------12----12----|
|----------------------------------|
|----------------------------------|
|
|   E  E  Q         E      E  Q
|----------------------------------|
|--------11------------------11----|
|-<12>-0-12----------------0-12----|
|----------------------------------|
|----------------------------------|
|----------------------------------|


   E  S  S  E    S  S  E  S  S  +S   S  E
|-------------------------------------------|
|------------------------13------------13---|
|----10h11------10s12-14----14-(14)-14------|
|-12-------12-------------------------------|
|-------------------------------------------|
|-------------------------------------------|
|
|  E  E     S E     S  E  E      S   E    S
|-------------------------------------------|
|-------------------------------------------|
|-------------------------------------------|
|--5--5-------5-----5--5--5----------5----5-|
|-------------------------------------------|
|-------------------------------------------|


                                 ~~
   S  S  S  S  S  S  S  S  E  E  Q
|----------13-14-14-15-15-15-15-14---|
|-13-14-15---------------------------|
|------------------------------------|
|------------------------------------|
|------------------------------------|
|------------------------------------|
|
|  E     E     S  E     S  E  E  E E
|------------------------------------|
|------------------------------------|
|------------------------------------|
|--5-----5--------5-----5--3--5--3-5-|
|------------------------------------|
|------------------------------------|


         |---3---|
   E  E  S  S    S  S  S  S  S  S  S  S  S  S  S
|-14-14-13h14p==13----13-------------------------|
|------------------15----15p13----13-------------|
|------------------------------14----14s13-12-12-|
|------------------------------------------------|
|------------------------------------------------|
|------------------------------------------------|
|
|  E  E  S    E        S  E     E     S  E     S
|------------------------------------------------|
|------------------------------------------------|
|------------------------------------------------|
|--5--5-------5--------5--5-----5--------5-----x-|
|------------------------------------------------|
|------------------------------------------------|


    E     S  S  +S   S  S  S  S  S  S  S  +S   S E
|--------------------------------------------------|
|--13----------------------------------------------|
|--12b14-12-12-(12)-10-----------------------------|
|----------------------12-12-12p10-----------------|
|----------------------------------12-11-(11)-10-8-|
|--------------------------------------------------|
|
|   E     E      Q            E     E      Q
|--------------------------------------------------|
|---------------11------------------------11-------|
|-<12>----0-----12------------------0-----12-------|
|--------------------------------------------------|
|--------------------------------------------------|
|--------------------------------------------------|


           ~~~~~~~~~
   E   E   Q      Q       Q
|-----------------------------|
|-----------------------------|
|-----------------------------|
|-----------------------------|
|-------------------------0---|
|-10--10--10b12--10-----------|
|
|  E   E   Q      E   E   Q
|-----------------------------|
|---------11-------------11\--|
|----<12>-12--------<12>-12\--|
|-----------------------------|
|-----------------------------|
|-----------------------------|


  W
|---------------------------------------------------------|
|---------------------------------------------------------|
|---------------------------------------------------------|
|---------------------------------------------------------|
|-5-------------------------------------------------------|
|---------------------------------------------------------|
|
|      |---------6---------|       |---------6---------|
| E E  S   S   S   S   S   S  E E  S   S   S   S   S   S
|---------------------------------------------------------|
|---------------------------------------------------------|
|-0-0-<4>-<4>-<4>-<4>-<4>-<4>-0-0-------------------------|
|---------------------------------<5>-<5>-<5>-<5>-<5>-<5>-|
|---------------------------------------------------------|
|---------------------------------------------------------|


   >
  +W
|-----------------------------------------------------------|
|-----------------------------------------------------------|
|-----------------------------------------------------------|
|-----------------------------------------------------------|
|-(5)-------------------------------------------------------|
|-----------------------------------------------------------|
|
|        |---------6---------|       |---------6---------|
|  E  E  S   S   S   S   S   S  E E  S   S   S   S   S   S
|-----------------------------------------------------------|
|-----------------------------------------------------------|
|--0--0-<4>-<4>-<4>-<4>-<4>-<4>-0-0-------------------------|
|-----------------------------------<5>-<5>-<5>-<5>-<5>-<5>-|
|-----------------------------------------------------------|
|-----------------------------------------------------------|


  +W
|-----------------------------------------------------------|
|-----------------------------------------------------------|
|-----------------------------------------------------------|
|-----------------------------------------------------------|
|-(5)-------------------------------------------------------|
|-----------------------------------------------------------|
|
|        |---------6---------|       |---------6---------|
|  E  E  S   S   S   S   S   S  E E  S   S   S   S   S   S
|-----------------------------------------------------------|
|-----------------------------------<4>-<4>-<4>-<4>-<4>-<4>-|
|--0--0-<4>-<4>-<4>-<4>-<4>-<4>-0-0-------------------------|
|-----------------------------------------------------------|
|-----------------------------------------------------------|
|-----------------------------------------------------------|


 2/4                           4/4
  H                             Q    Q   Q       Q
|-----------------------------|----------------------||
|-----------------------------|----------------------||
|-----------------------------|----------------------||
|-----------------------------|------4\----------4\--||
|-----------------------------|----------------------||
|-----------------------------|----------------------||
|
|      |---------6---------|
| E E  S   S   S   S   S   S    E E  Q   E   E   Q
|-----------------------------|----------------------||
|-----<4>-<4>-<4>-<4>-<4>-<4>-|-----11----------11---||
|-0-0-------------------------|-0-0-12-----<12>-12---||
|-----------------------------|----------------------||
|-----------------------------|----------------------||
|-----------------------------|----------------------||


         ~~~             PM
   E  E  E.          S   E E  E       E
|---------------------------------------------|
|---------------------------------------------|
|--------7-----------7------------------------|
|----/7------------------7-6--6s======7-------|
|-/5------------------------------------------|
|---------------------------------------------|
|
|        |------6------|      |-----6------|
|  E  E  S  S S  S S   S E E  S  S S  S  S S
|---------------------------------------------|
|-------10--9-7-10-9---7-----12-10-9-12-10-9--|
|--0--0------------------0-0------------------|
|---------------------------------------------|
|---------------------------------------------|
|---------------------------------------------|


  PM|  ~~~             PM                ~~~             PM
  E E  E.          S   E E  Q      E  E  E.          S   E E  E       E
|-------------------------------|--------------------------------------------|
|-------------------------------|--------------------------------------------|
|------7-----------7------------|--------7-----------7-----------------------|
|---7------------------7-6--6\--|----/7------------------7-6--6s======7------|
|-5-----------------------------|-/5-----------------------------------------|
|-------------------------------|--------------------------------------------|
|
|      |------6------|                   |------6------|      |-----6------|
| E E  S  S S  S S   S E E  Q      E  E  S  S S  S S   S E E  S  S S  S  S S
|-------------------------------|--------------------------------------------|
|-----10--9-7-10-9---7-----11---|-------10--9-7-10-9---7-----12-10-9-12-10-9-|
|-0-0------------------0-0-12---|--0--0------------------0-0-----------------|
|-------------------------------|--------------------------------------------|
|-------------------------------|--------------------------------------------|
|-------------------------------|--------------------------------------------|


  PM|  ~~~             PM
  E E  E.          S   E E  Q
|-------------------------------|
|-------------------------------|
|------7-----------7------------|
|---7------------------7-6--6\--|
|-5-----------------------------|
|-------------------------------|
|
|      |------6------|
| E E  S  S S  S S   S E E  Q
|-------------------------------|
|-----10--9-7-10-9---7-----11---|
|-0-0------------------0-0-12---|
|-------------------------------|
|-------------------------------|
|-------------------------------|


         ~~~                 PM
   E  E  E.             S    E E  E        E
|--------------------------------------------------|
|--------------------------------------------------|
|--------7--------------7--------------------------|
|----/7----------------------7-6--6s=======7-------|
|-/5-----------------------------------------------|
|--------------------------------------------------|
|
|        |--------6--------|      |------6-------|
|  E  E  S   S  S  S  S    S E E  S  S  S  S  S  S
|-------17--16-14-17-16---14-----19-17-16-19-17-16-|
|--------------------------------------------------|
|--0--0----------------------0-0-------------------|
|--------------------------------------------------|
|--------------------------------------------------|
|--------------------------------------------------|


  PM|  ~~~                 PM
  E E  E.             S    E E  Q
|-----------------------------------|
|-----------------------------------|
|------7--------------7-------------|
|---7----------------------7-6--6\--|
|-5---------------------------------|
|-----------------------------------|
|
|      |--------6--------|
| E E  S   S  S  S  S    S E E  Q
|-----17--16-14-17-16---14-----18---|
|-----------------------------------|
|-0-0----------------------0-0--0---|
|-----------------------------------|
|-----------------------------------|
|-----------------------------------|


         ~~~                 PM
   E  E  E.             S    E E  E        E
|--------------------------------------------------|
|--------------------------------------------------|
|--------7--------------7--------------------------|
|----/7----------------------7-6--6s=======7-------|
|-/5-----------------------------------------------|
|--------------------------------------------------|
|
|        |--------6--------|      |------6-------|
|  E  E  S   S  S  S  S    S E E  S  S  S  S  S  S
|-------17--16-14-17-16---14-----19-17-16-19-17-16-|
|--------------------------------------------------|
|--0--0----------------------0-0-------------------|
|--------------------------------------------------|
|--------------------------------------------------|
|--------------------------------------------------|


  PM|  ~~~                 PM
  E E  E.             S    E E  Q
|-----------------------------------|
|-----------------------------------|
|------7--------------7-------------|
|---7----------------------7-6--6\--|
|-5---------------------------------|
|-----------------------------------|
|
|      |--------6--------|
| E E  S   S  S  S  S    S E E  Q
|-----17--16-14-17-16---14-----18\--|
|-----------------------------------|
|-0-0----------------------0-0--0---|
|-----------------------------------|
|-----------------------------------|
|-----------------------------------|


      D                 D5/A
  Q    Q  Q    Q    Q   Q  Q   Q    Q   Q  Q   Q
|-----------------|---------------|----------------|
|-----------------|-----3------3--|-----3------3---|
|-----------------|-----2------2--|-----2------2---|
|------4-------4--|-----0------0--|-----0------0---|
|------5-------5--|-----0------0--|-----0------0---|
|-----------------|---------------|----------------|
|
| E E  Q  E E  Q    E E Q  E E Q    E E Q  E E Q
|-----------------|---------------|----------------|
|-----11------11--|-7-7----7-7----|-7-7----7-7-----|
|---0-12----0-12--|-0-0----0-0----|-0-0----0-0-----|
|-----------------|---------------|----------------|
|-----------------|---------------|----------------|
|-----------------|---------------|----------------|


   Q    Q   Q    Q     Q    Q   Q    Q    Q   Q  Q   Q    Q   Q  Q   Q
|-------------------|-------------------|---------------|----------------|
|-------3--------3--|-------3--------3--|-----3------3--|-----3------3---|
|-------2--------2--|-------2--------2--|-----2------2--|-----2------2---|
|-------0--------0--|-------0--------0--|-----0------0--|-----0------0---|
|-------0--------0--|-------0--------0--|-----0------0--|-----0------0---|
|-------------------|-------------------|---------------|----------------|
|
|  E  E Q   E  E Q     E  E Q   E  E Q    E E Q  E E Q    E E Q  E E Q
|-------------------|-------------------|-2-2----2-2----|-2-2----2-2-----|
|-11-11----11-11----|-11-11----11-11----|-2-2----2-2----|-2-2----2-2-----|
|--0--0-----0--0----|--0--0-----0--0----|-0-0----0-0----|-0-0----0-0-----|
|-------------------|-------------------|---------------|----------------|
|-------------------|-------------------|---------------|----------------|
|-------------------|-------------------|---------------|----------------|


  Q   Q  Q   Q    Q   Q  Q   Q    W
|---------------|---------------|-------------*|
|-----3------3--|-----3------3--|-------------*|
|-----2------2--|-----2------2--|-------------*|
|-----0------0--|-----0------0--|-------------*|
|-----0------0--|-----0------0--|-------------*|
|---------------|---------------|-------------*|
|
| E E Q  E E Q    E E Q  E E Q    E E Q  H
|-2-2----2-2----|-2-2----2-2----|-2-2---------*|
|-2-2----2-2----|-2-2----2-2----|-2-2---------*|
|-0-0----0-0----|-0-0----0-0----|-0-0---------*|
|---------------|---------------|-------------*|
|---------------|---------------|-------------*|
|---------------|---------------|-------------*|


Duration Legend
---------------
W - whole; H - half; Q - quarter; E - 8th; S - 16th; T - 32nd; X - 64th; a - acciaccatura
+ - note tied to previous; . - note dotted; .. - note double dotted
Uncapitalized letters represent notes that are staccato (1/2 duration)
Irregular groupings are notated above the duration line
Duration letters will always appear directly above the note/fret number it represents the
duration for.  Duration letters with no fret number below them represent rests.  Multi-
bar rests are notated in the form Wxn, where n is the number of bars to rest for.  Low
melody durations appear below the staff

Tablature Legend
----------------
 h   - hammer-on
 p   - pull-off
 b   - bend
 pb  - pre-bend
 r   - bend release (if no number after the r, then release immediately)
 /\  - slide into or out of (from/to "nowhere")
 s   - legato slide
 S   - shift slide
  - natural harmonic
[n]  - artificial harmonic
n(n) - tapped harmonic
 ~   - vibrato
 tr  - trill
 T   - tap
 TP  - trem. picking
 PM  - palm muting
\n/  - tremolo bar dip; n = amount to dip
 \n  - tremolo bar down
 n/  - tremolo bar up
/n\  - tremolo bar inverted dip
 =   - hold bend; also acts as connecting device for hammers/pulls
 <>  - volume swell (louder/softer)
 x   - on rhythm slash represents muted slash
 o   - on rhythm slash represents single note slash

Misc Legend
-----------
 |  - bar
||  - double bar
||o - repeat start
o|| - repeat end
*|  - double bar (ending)
 :  - bar (freetime)
 $  - Segno
 &  - Coda
Tempo markers -  = BPM(8/16=s8/s16), where s8 = swing 8ths, s16 = swing 16ths
Comments