Primus - Welcome To This World Chords & Tabs

 

Welcome To This World Chords & Tabs

Primus Chords & Tabs

Version: 1 Type: Bass Tab 0 ratings
1 star 2 stars 3 stars 4 stars 5 stars
comments

Welcome To This World Bass Tab

Primus - Welcome to this world
tabbed by Bruno J.
 
 
Verse: ALL NOTES ARE TAPPED
 
G:-------15-----------16--------15-------14-------15----------16-------15--------14--
D:-------15-------16------------15-------14-------15------16-----------15--------14--
A:--13-------14------------13-------12-------13-------14----------13--------12-------
E:-----------------------------------------------------------------------------------------------
 
G:-------16-------15------------14-------15-------16-------------15-------14------15--
D:-------16------------15-------14-------15------------16--------15-------14------15--
A:--14-------13------------12-------13-------14------------13--------12------13-------
E:------------------------------------------------------------------------------------------------
 
 
Chorus
    
      T  P   T  T P  T  P   T   P  T    P  T  T   P   T  P    T  P
G:-----------------------------------------------------------------------------------
D:-------8----------9-------8--------7--------8-----------9--------8--------7--
A:-----------------------------------------------------------------------------------
E:--6-------7--7------6--------5--------6--------7--7--------6--------5------
 
 
      T   P  T  T  P  T  T  P   P  P
G:------------------------------------5--4---
D:-------9----------8-----------7-----------
A:--------------------------------------------
E:--7-------6--6------5---5---------------
 
 
Bridge
 
        T    P   T   T    P   T   T    P    T    P     T    P     T   T    P     T    T   P    T   P
G:-------------------------------------------------------------------14--------------13--------------12--------11--
D:---------14-------------13-------------12---------11-------------------------------------------------------------
A:-------------------------------------------------------------12---------11--11--------10--10---------9--------
E:--12---------11--11-------10--10---------9--------------------------------------------------------------------
 
     
      T    P   T  T   P   T  T   P  T   P
G:-------------------------------------------------
D:--------5------------6------------7-------8---
A:-------------------------------------------------
E:--3--------4--4---------5--5-------6--------

 
Then comes a part I haven't figured out yet, but he plays these two chords:   B  and  C#
 
I just want to thank Jan Ieven who helped my transcribing this
 
 
Any corrections:Babaars@hotmail.com


[ Tab from: http://www.guitartabs.cc/tabs/p/primus/welcome_to_this_world_btab.html ]
Comments