Primus - Toys Go Winding Down Chords & Tabs

 

Toys Go Winding Down Chords & Tabs

Primus Chords & Tabs

Version: 4 Type: Bass Tab

Toys Go Winding Down Bass Tab

Well,from what I have seen,every other tab is wrong,so here it is,right off of 
whole main riff is played in triplets

RATE THIS


intro
G|:---------------|
D|:-----------/3--|
A|:-2-2---3-2-----|
E|:-----1---------|

G|:---------101010-121212-----------------|
D|:-888-888--------------101010-121212----|
A|:----[these are triplets not 1-0-1]-----|
E|:---------------------------------------|

Chorus

G|:----------------------------------------------------|
D|:--------------3-3-3-4-4-4---------------------------|
A|:-1-1-1-1-1-1-------------1-1-1-1-1-1-4-4-4-333------|
E|:----------------------------------------------------|

G|:-----3-------------------------|
D|:-----3-333-444-----------------|
A|:-111-1---------111-111-444-333-|
E|:-------------------------------|

Solo-ish thing
G:---------------------------------------------------------------------------|
D:---------------------------------------------------------------------------|
A:-1-1-1-1-1/13-13h15p13-13h15p13-----13-13-----13-13-----13-13-----13-15----|
E:--------------------------------13h15----13h15-----13h15----13h15----------|
[ Tab from: http://www.guitartabs.cc/tabs/p/primus/toys_go_winding_down_btab_ver_4.html ]
G:----------------------------------------------------------------------|
D:----------------------------------3h4---------------------------------|
A:---1-1------1-1-1-------1-1-1---------0-------------------------------|
E:-------1h2--------1-1h2-------1h2-------------------------------------|

G:-----------------6-5-3---3-----------------------------------------------|
D:-4-4-4-3-4-4-4-3-------6---4-------------3-3h4----------------3-3h4------|
A:-1-1-------------------------1-1----1-1-1-----1-1-1--1-1-1---------71----|
E:---------------------------------1h2-----------------------1h2-----------|

G:----------------------------------------------------------------------|
D:---3-3h4-------3-3h4-----------------3h4------------------------------|
A:-1-------1-1-1-------1-1-1-----1-1-1-----/16/18/18/18-----------------|
E:---------------------------1h2----------------------------------------|

G:----------------------------------------------------------------------|
D:---------------------3-4-----3-4--------------------------------------|
A:-1---1---1-1-----1-1-----1-1-----1-1-----71-1-1-----------------------|
E:-------------1-2---------------------1-2---------1-2-4/6--------------|


word,there it is,peace out
RAte this

Will-eh