Primus - Too Many Puppies Chords & Tabs

 

Too Many Puppies Chords & Tabs

Primus Chords & Tabs

Version: 5 Type: Bass Tab

Too Many Puppies Bass Tab

   
Too Many Puppies (bass tab) - by Primus


Tuning: Standard (G D A E)

h = hammer on		p = pull off
x = ghost note		~ = whammy bar
s = slap		/ = slide up
\ = slide down


Intro

|--------------------------------|
|--------------------------------|
|--------------------------------|
|--------------------------------| x4


|5-6-6-6-7-----------------------|
|5---5-5-5-----------------------|
|--------------------------------|
|--------------------------------| x4
   h

|5-6-6-6-7---x-x-x---x-x-x---x-x-|
|5---5-5-5---x-x-x---x-x-x---x-x-|
|--------------------------------|
|--------------------------------| x3
   h

|5-6-6-6-7---x-x-x---x-x-x-------|
|5---5-5-5---x-x-x---x-x-x-------|
|--------------------------------|
|----------------------------12\\| x1
   h                         s

|5-6-6-6-7-----------------------|
|5---5-5-5-----------------------|
|--------------------------------|
|------------0---2---0---2---3---| x4
   h         s   s   s   s   s


Verse #1

|5-6-6-6-7-----------------------|
|5---5-5-5-----------------------|
|--------------------------------|
|--------------------------------| x4
   h

|5-6-6-6-7-----------------------|
|5---5-5-5-----------------------|
|--------------------------------|
|------------0---2---0---2---3---| x2
   h         s   s   s   s   s


Chorus #1

|5-6-6-6-7-----------------------|
|5---5-5-5-----------------------|
|--------------------------------|
|--------------------------------| x2
   h

|5-6-6-6-7-----------------------|
|5---5-5-5-----------------------|
|--------------------------------|
|------------0---2---0---2---3---| x4
   h         s   s   s   s   s


Verse #2

|5-6-6-6-7-----------------------|
|5---5-5-5-----------------------|
|--------------------------------|
|--------------------------------| x4
   h

|5-6-6-6-7-----------------------|
|5---5-5-5-----------------------|
|--------------------------------|
|------------0---2---0---2---3---| x2
   h         s   s   s   s   s


Chorus #2

|5-6-6-6-7-----------------------|
|5---5-5-5-----------------------|
|--------------------------------|
|--------------------------------| x3
   h

|5-6-6-6-7-----------------------|
|5---5-5-5-----------------------|
|--------------------------------|
|----------------------------12\\| x1
   h                         s


Bridge
[ Tab from: http://www.guitartabs.cc/tabs/p/primus/too_many_puppies_btab_ver_5.html ]
|6-5-x-x-6-5-x-x-6-5-x-x-6-5-x-x-|6-5-x-x-6-5-x-x-6-5-x-x-x---x-x-|
|5---x-x-5---x-x-5---x-x-5---x-x-|5---x-x-5---x-x-5---x-x-x---x-x-|
|--------------------------------|--------------------------------|
|--------------------------------|--------------------------------| x3
   p       p       p       p        p       p       p

|6-5-x-x-x---x-x-x---x-x-x---x-x-|
|5---x-x-x---x-x-x---x-x-x---x-x-|
|--------------------------------|
|--------------------------------| x2
   h

|--------------------------------|
|--------------------------------|
|--------------------------------|
|0///12\\\\\\\\\\\\\\\\\\\\\\\\\\| x1
 s

|--------------------------------|
|--------------------------------|
|--------------------------------|
|--------------------------------| x7
 ~ ~ ~ ~ ~ ~ ~ ~ ~ ~ ~ ~ ~ ~ ~ ~

|--------------------------------|
|--------------------------------|
|--------------------------------|
|----------------------------12\\| x7
 ~ ~ ~ ~ ~ ~ ~ ~ ~ ~ ~ ~ ~   s

|5-6-6-6-7-----------------------|
|5---5-5-5-----------------------|
|--------------------------------|
|------------0---2---0---2---3---| x4
   h         s   s   s   s   s


Verse #3

|5-6-6-6-7-----------------------|5-6-6-6-7-----------------------|
|5---5-5-5-----------------------|5---5-5-5-----------------------|
|--------------------------------|--------------------------------|
|--------------------------------|----------------------------12\\| x2
   h                                h                         s

|5-6-6-6-7-----------------------|
|5---5-5-5-----------------------|
|--------------------------------|
|------------0---2---0---2---3---| x2
   h         s   s   s   s   s


Outro

|5-6-6-6-7-----------------------|
|5---5-5-5-----------------------|
|--------------------------------|
|------------0---2---0---2---3---| x6
   h         s   s   s   s   s

|5-6-6-6-7-----------------------|
|5---5-5-5-----------------------|
|--------------------------------|
|--------------------------------| x3
   h

|5-6-6-6-7-----------------------|
|5---5-5-5-----------------------|
|--------------------------------|
|------------0/12\\\\\\\\\\\\\\\\| x1
   h         s

|5-6-6-6-7-----------------------|
|5---5-5-5-----------------------|
|--------------------------------|
|------------0---2---0---2---3---| x4
   h         s   s   s   s   s

|5-6-6-6-7-----------------------|
|5---5-5-5-----------------------|
|--------------------------------|
|--------------------------------| x1
   h