Primus - Those Damn Blue Collared Tweekers Chords & Tabs

 

Those Damn Blue Collared Tweekers Chords & Tabs

Primus Chords & Tabs

Version: 2 Type: Bass Tab 0 ratings
1 star 2 stars 3 stars 4 stars 5 stars
comments

Those Damn Blue Collared Tweekers Bass Tab

From: Primus8@aol.com
Music by Primus, Words by Les Claypool

__________________________________________________
--------------------------------------------------
"Those Damn Blue Collared Tweekers" from "Sailing The Seas Of Cheese"
__________________________________________________
--------------------------------------------------
Tabbed by Christopher Preston

	The bass intro/verse riff uses a very muted F#, which can be achieved
by either palm muting, but it looks like just not pressing the string all the
way to the fretboard.  For The Hammer-On 16-17 part of the solo, playing 
live, Les plucks every 16, instead of letting them all ring. The E's
vibration at the end of the bass solo is the work of Les's Whammy Bar, but 
can be [almost] duplicated by detuning the E string, then tuning back up.
(Be carefull, you still have to hit the E for the chorus and the verse! be
sure to tune up after if you chose to do that) 

Guitar Intro:
|-------|
|-| 6 |-|
|-------|
|-------|

Bass Intro/Verse:

	40 times
|------|
|------|
|------|
|-0--2-|


Chorus:

|--2-4--------------|-2-4-2-6-4-2-4-2-0-4-|--------------|
|*-2-4-------------*|-2-4-2-6-4-2-4-2-0-4-|--------------|
|*-----------------*|---------------------|--------------|
|------0-000-000-0--|---------------------|-0-000-000-0--|

Verse:
	24 times
|------|
|------|
|------|
|-0--2-|

Chorus:

|--2-4--------------|-2-4-2-6-4-2-4-2-0-4-|--------------|
|*-2-4-------------*|-2-4-2-6-4-2-4-2-0-4-|--------------|
|*-----------------*|---------------------|--------------|
|------0-000-000-0--|---------------------|-0-000-000-0--|


Solo + Verse
	40 times
|------|
|------|
|------|
|-0--2-|


Chorus:

|--2-4--------------|-2-4-2-6-4-2-4-2-0-4-|--------------|
|*-2-4-------------*|-2-4-2-6-4-2-4-2-0-4-|--------------|
|*-----------------*|---------------------|--------------|
|------0-000-000-0--|---------------------|-0-000-000-0--|

[ Tab from: http://www.guitartabs.cc/tabs/p/primus/those_damn_blue_collared_tweekers_btab_ver_2.html ]
Bass Solo:
|--------------------------------------------------------|
|-16-16-16--16-16-16--16-16-16--16-----------------------|
|--------------------------------------------------------|
|--------------------------------------------------------|

|--------------------------------------------------------|
|-16-16-16--16-16-16--15-15-15--14-----------------------|
|--------------------------------------------------------|
|--------------------------------------------------------|

|-----------------16-17h--16h-17h--16h-17h--16h-17h--16h-17h-|
|-16-16-15-14-14---------------------------------------------|
|------------------------------------------------------------|
|------------------------------------------------------------|

|-17-17-14--------------------------------|
|-----------15-14-------14----------14----|
|-----------------15-14----15-14-15----15-|
|-----------------------------------------|

|---------------------------------|----------------------|
|-X-X-14-----------14-------14----|-14-14----14-------14-|
|--------15--14-15----15-14----15-|-------15----15-14----|
|---------------------------------|----------------------|

|-11-14-11-14-16-17-17-14----14-|
|-------------------------16----|
|-------------------------------|
|-------------------------------|

|-------19-16----16-------------------------|
|-16-19-------17----17-16----16-------------|
|-------------------------17----12-15-12-15-|
|-------------------------------------------|

|-16-16-12---------------|------------------|
|----------15-15--12-----|------------------|
|--------------------12--|------------------|
|------------------------|-O/\/\/\/\/\/\/\--|

Verse:

	X times
|------|
|------|
|------|
|-0--2-|

Chorus:

|--2-4--------------|-2-4-2-6-4-2-4-2-0-4-|--------------|
|*-2-4-------------*|-2-4-2-6-4-2-4-2-0-4-|--------------|
|*-----------------*|---------------------|--------------|
|------0-000-000-0--|---------------------|-0-000-000-0--|


Comments