Primus - The Ballad Of Bodacious Chords & Tabs

 

The Ballad Of Bodacious Chords & Tabs

Primus Chords & Tabs

Version: 2 Type: Bass Tab 0 ratings
1 star 2 stars 3 stars 4 stars 5 stars
comments

The Ballad Of Bodacious Bass Tab

The Ballad of Bodacious by Primus

from the album Antipop

  Okay, I don't know if the techniques are all just right,
but the notes are.


The notes on figure 1 with the "v" on top are
played staccato (do not let the note ring)

The first fill is an accident, I think, but it sounds cool
(Les hits both 9's with his finger)

Start
G|--------------|
D|--------------|
A|--------------|
E|-0-------12\--|
   T

Figure 1
G|-----v---v---v--------v---v---------------0------|
D|-----2---2---2--------2---2----------------------|
A|-------------------------------------------------|
E|0----------x---3----x---x---3---3---x-x-x-----3--|
  T    P   P T P T    T P T P T   T   T L T P   T
[ Tab from: http://www.guitartabs.cc/tabs/p/primus/the_ballad_of_bodacious_btab_ver_2.html ]
Figure 2
G|-----------------------------------------|
D|------------------------7h9p7------------|
A|------------------------------9----------|
E|7-5-7---8---7--5--7---------------8--7\5-|
                          P
Figure 2b
G|----------------12h13p12h13....----|
D|-12p9------------------------------|
A|-------12---15---------------------|
E|-----------------------------------|
   P     P    P   P

Figure 2c
G|-----------------14h15p14h15....---|
D|-14h11-----------------------------|
A|--------14---17--------------------|
E|-----------------------------------|
   P      P    P   P

Some fills:
  0:35                1:10
G|-----------------| |---------------|
D|---7h9---7-------| |---------------|
A|----h9------8\---| |------2-3/6\---|
E|-----------------| |--2-3----------|
     P     P  P
  2:03
G|-----------5h6p5h6....--|
D|------------------------|
A|-----2-3-5--------------|
E|-2-3--------------------|
             P

End
G|-------|
D|-------|
A|--757--|
E|--000--|
  ___/\_______________________
These notes are strummed

Figures played in this order

Start
Figure 1   x14
Figure 2a  x3,5
Figure 2b
Figure 1   x12
Figure 2a  x3,5
Figure 2b
Figure 2c
End

Send any comments to ruutiukko@hotmail.com

Comments