Primus - Shake Hands With Beef Chords & Tabs

 

Shake Hands With Beef Chords & Tabs

Primus Chords & Tabs

Version: 3 Type: Bass Tab 0 ratings
1 star 2 stars 3 stars 4 stars 5 stars
comments

Shake Hands With Beef Bass Tab

Primus
Shake Hands With Beef
Les Claypool
Played on a 5 string bass

[ Tab from: http://www.guitartabs.cc/tabs/p/primus/shake_hands_with_beef_btab_ver_3.html ]
G||--------------------------------------------------------------|
D||--------------------------------------------------------------|
A||--------------------------------------------------------------|
E||-----5--------------5------------5----------------------------|
B||--7----9/7-3/5---77---9/7-3/5---7--9/7-3/5---7-7--5--9/7--3/5-|

or easy version

G||---------------------------------------------------------------|
D||---------------------------------------------------------------|
A||---------------------------------------------------------------|
E||----5----------5------------5----------------------------------|
B||--7---7-5---77---7--5-----7---7--5---77-5--7--5----------------|
Comments