Primus - Scissor Man Chords & Tabs

 

Scissor Man Chords & Tabs

Primus Chords & Tabs

Version: 1 Type: Bass Tab 0 ratings
1 star 2 stars 3 stars 4 stars 5 stars
comments

Scissor Man Bass Tab

   
I am the antipop!

This song is originaly from XTC and the cover song is in the Rhinoplasty album


order PART 1, PART 2,
PART 1, PART 2, PART 1, PART 2, PART 3


PART 1
G------------------4--7(let ring)-------------4--7(letring)------------7-7-|
D-----4-5--(4-4)-5------0(let ring)---(4-4)-5------0(letring)----------5-5-|
A--------------------------------------------------------------------------|
E--------------------------------------------------------------------------|

G--------------4--7(let ring)-------------4--7(letring)------------7-7-|
D------(4-4)-5------0(let ring)---(4-4)-5------0(letring)----------5-5-|
A----------------------------------------------------------------------|
E----------------------------------------------------------------------|
[ Tab from: http://www.guitartabs.cc/tabs/p/primus/scissor_man_btab.html ]
PART 2
G--------------------------------------------------------------------------|
D-------3--------3-------5-----5----------7-------7-----------3--------3---|
A-----3-------3--------3---------3------7-------7-----------3---------3----|
E-x-1-----x-1------x-3-----x-3------x-5-----x-5--------x--1-------x-1------|

                                                        (3 times)
G---------------------------------------------------|--------6-7---|--------|
D-------3--------3-------5-----5----------7-------7-|.--(6)7------.|--------|
A-----3-------3--------3---------3------7-------7---|.------------.|--------|
E-x-1-----x-1------x-3-----x-3------x-5-----x-5-----|--------------|--------|

PART 3
Riff A                                    Riff B
G----------7--5------------------------|-----7--5--------9--7------------|
D----------------7--5------------------|-----------7--5----------9-------|
A------------------------7--5----------|---------------------------------|
E-------------------------------7------|---------------------------------|

"You might find the important piece is gone..."
Comments