Primus - Puddin Taine Chords & Tabs

 

Puddin Taine Chords & Tabs

Primus Chords & Tabs

Version: 1 Type: Tab 0 ratings
1 star 2 stars 3 stars 4 stars 5 stars
comments

Puddin Taine Tab

Standard Tuning

Verse 1:
e|---------------------------------|
B|---------------------------------|
G|---------------------------------|
D|---------------------------------|
A|--5-5-5--5-5-5-----5-5-5--5-5-5--|
E|---------------------------------| (x2)

Chorus:
e|----------------------------------|
B|----------------------------------|
G|----------------------------------|
D|--12--12--10--13--12--12-12---10--|
A|--12--12--10--13--12--12-12---10--|
E|--10--10--8---11--10--10-10---8---|

e|----------------------------------|
B|----------------------------------|
G|----------------------------------|
D|--12--12--10--13--12--12------10--|
A|--12--12--10--13--12--12------10--|
E|--10--10--8---11--10--10------8---|

e|----------------------------------|
B|----------------------------------|
G|----------------------------------|
D|--12--12--10--13--12--12-12---10--|
A|--12--12--10--13--12--12-12---10--|
E|--10--10--8---11--10--10-10---8---|

e|----------------------------------|
B|----------------------------------|
G|----------------------------------|
D|--12--12--10--13--12--12------10--|
A|--12--12--10--13--12--12------10--|
E|--10--10--8---11--10--10------8---|


Verse 2:
e|-----------------------|
B|-----------------------|
G|-----------------------|
D|--------------<5>-<4>--|
A|------------<5>--------|
E|--<5>-<5>-<5>----------| (x4)

e|---------------------------------|
B|---------------------------------|
G|---------------------------------|
D|---------------------------------|
A|--5-5-5--5-5-5-----5-5-5--5-5-5--|
E|---------------------------------| (x4)


Chorus:
e|----------------------------------|
B|----------------------------------|
G|----------------------------------|
D|--12--12--10--13--12--12-12---10--|
A|--12--12--10--13--12--12-12---10--|
E|--10--10--8---11--10--10-10---8---|

e|----------------------------------|
B|----------------------------------|
G|----------------------------------|
D|--12--12--10--13--12--12------10--|
A|--12--12--10--13--12--12------10--|
E|--10--10--8---11--10--10------8---|

e|----------------------------------|
B|----------------------------------|
G|----------------------------------|
D|--12--12--10--13--12--12-12---10--|
A|--12--12--10--13--12--12-12---10--|
E|--10--10--8---11--10--10-10---8---|

e|----------------------------------|
B|----------------------------------|
G|----------------------------------|
D|--12--12--10--13--12--12------10--|
A|--12--12--10--13--12--12------10--|
E|--10--10--8---11--10--10------8---|


Guitar Solo:
e|---------------------------------------------------------|
B|--15-15-15-16-15----16-15----15-15-15-16-18-18-18-16-17--|
G|--14-14-14-------14-------14-14-14-14--------------------|
D|---------------------------------------------------------|
A|---------------------------------------------------------|
E|---------------------------------------------------------|
[ Tab from: http://www.guitartabs.cc/tabs/p/primus/puddin_taine_tab.html ]
e|------------------------------------------------|
B|------------------------------------------------|
G|-9-9-8-7--7-6-6-5-5-4-3-2/5-7--------------7-5--|
D|------------------------------5-7-7-5-5-4--7-5--|
A|-------------------------------------------5-3--|
E|------------------------------------------------|

e|------------------------------------------------------|
B|-----------------------------------19-19-19-19--------|
G|----------------4-4-4-5-4-4-4--/19--------------------|
D|--5-4-5---5-4-5--------------------------------17-17--|
A|--------3---------------------------------------------|
E|------------------------------------------------------|


Verse 3:
e|------------------------|
B|------------------------|
G|------------------------|
D|---------------<5>-<4>--|
A|-------------<5>--------|
E|---<5>-<5>-<5>----------| (x4)

e|------------------------------------------------------|
B|------------------------------------------------------|
G|------------------------------------------------------|
D|---------------------------------------------<5>-<4>--|
A|--5-5-5--5-5-5-----5-5-5--5-5-5------------<5>--------|
E|---------------------------------<5>-<5>-<5>----------| (x4)

e|-------------------------------------|
B|-------------------------------------|
G|-------------------------------------|
D|----------------------------<5>-<4>--|
A|--5-5-5--5-5-5------------<5>--------|
E|----------------<5>-<5>-<5>----------| (x6)


Chorus/Outro:
e|----------------------------------|
B|----------------------------------|
G|----------------------------------|
D|--12--12--10--13--12--12-12---10--|
A|--12--12--10--13--12--12-12---10--|
E|--10--10--8---11--10--10-10---8---|

e|----------------------------------|
B|----------------------------------|
G|----------------------------------|
D|--12--12--10--13--12--12------10--|
A|--12--12--10--13--12--12------10--|
E|--10--10--8---11--10--10------8---|

e|----------------------------------|
B|----------------------------------|
G|----------------------------------|
D|--12--12--10--13--12--12-12---10--|
A|--12--12--10--13--12--12-12---10--|
E|--10--10--8---11--10--10-10---8---|

e|----------------------------------|
B|----------------------------------|
G|----------------------------------|
D|--12--12--10--13--12--12------10--|
A|--12--12--10--13--12--12------10--|
E|--10--10--8---11--10--10------8---|

e|----------------------------------|
B|----------------------------------|
G|----------------------------------|
D|--12--12--10--13--12--12-12---10--|
A|--12--12--10--13--12--12-12---10--|
E|--10--10--8---11--10--10-10---8---|

e|----------------------------------|
B|----------------------------------|
G|----------------------------------|
D|--12--12--10--13--12--12------10--|
A|--12--12--10--13--12--12------10--|
E|--10--10--8---11--10--10------8---|

e|----------------------------------|
B|----------------------------------|
G|----------------------------------|
D|--12--12--10--13--12--12-12---10--|
A|--12--12--10--13--12--12-12---10--|
E|--10--10--8---11--10--10-10---8---|

e|-----------------------------|
B|-----------------------------|
G|-----------------------------|
D|--12--12--10--13--12--12-12--|
A|--12--12--10--13--12--12-12--|
E|--10--10--8---11--10--10-10--|
Comments