Primus - Over The Falls Chords & Tabs

 

Over The Falls Chords & Tabs

Primus Chords & Tabs

Version: 1 Type: Tab 0 ratings
1 star 2 stars 3 stars 4 stars 5 stars
comments

Over The Falls Tab

Over The Falls
Primus
Brown Album


E------------|--------------|------------|---------------
B------------|--------------|------------|---------------
G-----0------|--------------|-----0------|---------------
D-------0h2--|--------------|-------0h2--|----------- X 4
A------------|-----4h5h4----|------------|---------------
E--0---------|--0--------5--|--0---------|--3h5h3h5h3h5--


VERSE:

p.m---------------------

E----------|----------
B----------|----------
G----------|----------
D-----666--|-----666-- Keep repeating
A-------7--|-------7--
E--0--000--|--0--000--

[ Tab from: http://www.guitartabs.cc/tabs/p/primus/over_the_falls_tab.html ]
    "He stood by and waited to be called"
E-------------------|----------
B-------------------|----------
G-------------------|----------
D--7-7-7--10-10-10--|-----666-- X 2
A--7-7-7--10-10-10--|-------7--
E--5-5-5--8--8--8---|--0--000--


E--------------------------------|-----------------|----------
B--------------------------------|-----------------|----------
G--------------------------------|-----------------|----------
D--7-7-7--10-10-10-9-9-9--8-8-8--|--7-77--5--4--3--|-----666--
A--7-7-7--10-10-10-9-9-9--8-8-8--|--7-77--5--4--3--|-------7--
E--5-5-5--8--8--8--7-7-7--6-6-6--|--5-65--3--2--1--|--0--000--
Comments