Primus - Over The Electric Grapvine Chords & Tabs

 

Over The Electric Grapvine Chords & Tabs

Primus Chords & Tabs

Version: 1 Type: Bass Tab 0 ratings
1 star 2 stars 3 stars 4 stars 5 stars
comments

Over The Electric Grapvine Bass Tab

Over the Electric Grapevine
Tabbed by: Nathan Welton ( snark@rain.org). 

Q above the tab stands for quadruplets
/ is a slide
o is a pull off
s is a slap
p is a pop
/\ above the tab is a strum

This is most of it... There are a whole bunch of little interludes and
incidentals here and there, but this is pretty complete.

Intro solo :
|-----------7---7-9/11---9-11-14/16-|
|-7-9---7-9---9---------------------|
|-----------------------------------|
|-----------------------------------|
[ Tab from: http://www.guitartabs.cc/tabs/p/primus/over_the_electric_grapvine_btab.html ]
  QQQQQQQQQQQ
|-16-16-16-16-17-19-17-16h17o16-14-11-9-7-7-7-9-7----|
|-------------------------------------------------7-9|
|----------------------------------------------------|
|----------------------------------------------------|

|--------9-7-|----DRUM FILL--/14-|
|-4------9-7-|------THAT-----/14-|
|---2--------|------KICKS--------|
|------------|------ASS----------|


Verse :      /\              /\               /\
|------------14-|------------15-|-------------16-|
|------------14-|------------14-|-------------16-|
|--s/12-s/12----|--s/12-s/12----|--s/12-s/12-----|
|---------------|---------------|----------------|

             /\
|------------18-|
|------------19-|
|--s/12-s/12----|
|---------------|


Chorus :
    TTTTT
|-----------------|
|-----------------|
|-X-X-X-4---------|
|---------5-5-5-5-|
Comments