Primus - Over The Electric Grapevine Chords & Tabs

 

Over The Electric Grapevine Chords & Tabs

Primus Chords & Tabs

Version: 1 Type: Bass Tab 0 ratings
1 star 2 stars 3 stars 4 stars 5 stars
comments

Over The Electric Grapevine Bass Tab

__________________________________________________
--------------------------------------------------
"Over The Electric Grapevine" from "Tales from the Punchbowl"
__________________________________________________
--------------------------------------------------
Tabbed By Christopher Preston
[ Tab from: http://www.guitartabs.cc/tabs/p/primus/over_the_electric_grapevine_btab.html ]
Intro
|----------7---7-9--------14-16--16-16-16-17-19-17-16----------------------|
|-7/9--7-9---9------14-16-----------------------------19-16-14-12-12-14-12-|
|--------------------------------------------------------------------------|
|--------------------------------------------------------------------------|


|------------4-|
|-7-7-9--4-----|
|----------2---|
|--------------|


Comments