Primus - Over The Electic Grapevine Chords & Tabs

 

Over The Electic Grapevine Chords & Tabs

Primus Chords & Tabs

Version: 1 Type: Bass Tab

Over The Electic Grapevine Bass Tab

             Over the electric grapevine  from Tales from the punchbowl

              By Primus

h-hammer on         ^-bend
p-pull off          s-slide


Intro
   (It's much easier to do this with a pick, unless you have some long thick nails)

B---------------------------------------------------------------------------|
E---------------------------------------------------------------------------|
A--12h14--------12h14----14-------------------------------------------------|
D---------------------12-----12h14-----14^----14h16-17s19-19-21-2121212121--|

B----------------------------------------------------------------------------|
E----------------------------------------------------------------------------|
A----------------------------------------14-12--12h14------------------------|
D-23--21-19--19p17p16--16--1414^-14-1212-------------------------------------|

B-------------------------------------------------------------------------|
E-------------------------------------------------------------------------|
A----------2----------------7s5-------------------------------------------|
D-------4-------------------7s5-------------------------------------------|

B------------------------|
E-1sssssssssssss---------|
A-1sssssssssssss---------|
D-3sssssssssssss24-------|

                                                             (x3)
B--------------------------------------------------------------------------|
E--------------------------------------------------------------------------|
A--2h4-2h4-----2h4-2h4------2h4-2h4------2h4-2h4---------------------------|
D----------6-----------8------------9------------7-------------------------|


B----------------------------------------------------------------------------|
E----------------------------------------------------------------------------|
A--2h4-2h4-----2h4-2h4-------2h4-2h4-------2h4-2h4---------------------------|
D----------6-----------8-------------9-------------7^-(very small bend)------|
[ Tab from: http://www.guitartabs.cc/tabs/p/primus/over_the_electic_grapevine_btab.html ]
Verse                                                            (x11)
B------------------------------------------------------  |-------------|
E------------------------------------------------------  |-------------|
A-xxx-0000---xxx-0000--xxx-0000--xxx-0000--xxx-xxx-0000  |--xxx-0000---|
D------------------------------------------------------  |-------------|


B---------------------------------------------------|
E---------------------------------------------------|
A--2h4-2h4-----2h4-2h4-----2h4-2h4----2h4-2h4-------|
D----------6-----------8-----------9----------7-----|

B-------------------------------------------------------------|
E-------------------------------------------------------------|
A-2h4-2h4-------2h4-2h4--------2h4-2h4-------2h4-2h4----------|
D---------6-------------8--------------9-------------7^-------|(small bend)

            (x8)                     (x3)
B------------  |-----------  |------------|
E------------  |-----------  |------------|
A--xxx-0000--  |--xxx-2h4--  |--xxx-0000--|
D------------  |-----------  |------------|

B------------------------------------------------------------------------|
E------------------------------------------------------------------------|
A--xxx-xxxs4----0--xxx-xxxs4----0---2h4-2h4--------4s7------7s4------0---|
D----------(hold)----------(hold)------(hold)-------(hold)--(hold)-------|


B-------------------------------------------------------------------|
E-------------------------------------------------------------------|
A--2h4-2h4--0-----2h4-2h4--0-----2h4-2h4----------5h7----2h4------0-|
D-------(hold)---------(hold)---------(hold)------(hold)--(hold)----|

B-------------------------------------------------------------------|
E-------------------------------------------------------------------|
A-2h4-2h4-5-----2h4-2h4-7-----2h4-2h4-8------2h4-2h4----------------|
D---------6-------------8-------------9--------------7--------------|-(small bend)

with light distortion  (x3)
B-------------------------- |------------|
E-------------------------- |------------|
A---12-(hold)----10-------- |--12--------|(hold)
D---12-(hold)----10-------- |--12--------|(hold)


This is all I have for now