Primus - My Name Is Mud Chords & Tabs

 

My Name Is Mud Chords & Tabs

Primus Chords & Tabs

Version: 2 Type: Tab 0 ratings
1 star 2 stars 3 stars 4 stars 5 stars
comments

My Name Is Mud Tab

   
Song: My Name is Mud
Album: Pork Soda
Band: Primus

Tablature Explanation
*-dist.
h-hammer on
)-bend up
(-bend down
=-tremolo picking
v-vibrato

Bass first, then guitar.
Tuning: (B,E,A,D,G,C) (E,A,D,G,B,E)

Intro       Bass fig. 1-----------------------|
E|---------|--------------/3--------------/3--|--------------/3------------------|
B|---10\---|--1h3-3--1h3-3----1h3-3--1h3-3----|--1h3-3--1h3-3---1h3-3--1h3-3-0*--|

E|--------------/3------------------|---------------3---x---x---x-----------|
B|--1h3-3--1h3-3---1h3-3--1h3-3-0*--|--1h3-3--1h3-3---3---3---3---0-5--x\1--|

Guitar (heavy distortion) (w/Bass fig.1 4 times)
D|---------1/2bend---|--------------full----|-----------------------|
A|---------)()-------|----------)hold-------|--(---)-----------3----|
E|--2-----2-------2--|--2---2--2--------2---|-----2---2--2--2----2--|

  Bass fig. 2---------------------------------|
D|--------------------------------------------|        |--7h10--------|
A|------------------/10------------------/10--|        |--------7h10--|
E|--8h10-10--8h10-10-----8h10-10--8h10-10-----| x2then |--------------|

D|--------------------------)grad.bend|-hold-full----------------------|
A|----3---------3----------3----------|--------------3-----------------|

w/Bass fig.2 (x2)
D|bend.down---4---4--|---------------|
A|--(3---------------|--3-----(3)/---|
E|-------------------|--2-----(2)/---|
let ring-------------|
"My Name is Mud.__(w/ Bass fig. 1 4 times)

Verse 1 w/Bass fig. 1 (17 times)

Guitar Chorus thing (light dist. and wah as filter)(w/Bass fig. 1 x4)
Note: all bends in the next 4 measures are 1/2
e|----------)(-------0----)(------|------------)(-----------------------|
B|-----0--12)(-------0---2-----4--|------0---12)(---------0-------------|
G|-----0--12------)---------------|------0---12-------)---0--7-7-7-7-0--|
D|--5------------5)---------------|--5---------------5)-----------------|
A|--4------------4----------------|--4---------------4------------------|

e|-----------)(-------------------||-----------)---------------|
B|-----0---12)(----------0-----0--||-----0---12)------0--------|
G|-----0---12--------)---0-----0--||-----0---12-------0----)(--|
D|--5---------------5)------------||--5-----------5-------9----|
A|--4---------------4-------------||--4-----------4------------|

Guitar Solo 1 (w/Leslie effect) (w/Bass fig. 2 x12)
Note: All bends in the next 9 measures are 1/2
G|---)v---------------------|-------------------------------------|
D|--9--------9\/9-----------|-------------------------------------|
A|-----------=--=---9-------|----)v------)------------------------|
E|-----------=--=---=---9\--|--/2----2/14----14v--14--12--14--14--|
             =  =   =

B|------------------------------)-------|-------)-----------------|
G|---------------------17--17-17-17--17-|-17--17)--17--17-17------|
D|-------------16----------------16--16-|-16--16---16--16-16------|
A|----)(--15------15--------------------|-------------------------|
E|--14----------------------------------|---------------------x\--|
(Leslie off w/heavy dist.)
e|-----------------------------|------14--15----15----15----14--|
B|--10-9----------------10-----|-------------12----12----12-----|
G|-------9--10-11----------11--|--11--11--------------------11--|
D|-------------==--------------|--==--==--------------------==--|
               ==                 ==  ==                    ==

e|--15---14----15-----16---------|-----------------------------|
B|--------------------------/14--|-/14----16--16---------------|
G|--12---11----12-----13----/15--|-/15--------17---------------|
D|--==---==----==-----==-----==--|--==--------==---------------|
A|--==---==----==-----==-----==--|--==--------==---------------|
E|--==---==----==-----==-----==--|--==--------==------0---x\2--|
    ==   ==    ==     ==     ==     ==        ==

A|-------)(-------|-------)full--|------3-----|--3-------|
E|--2---2------2--|---0--2-------|---0-----2--|-------2--|
                                               let ring--|
(guitar out)
Verse 2 (w/Bass fig. 1 x17)

Chorus (w/light dist. and wah as filter)(w/Bass fig. 1 x7)
Note: next 3 measures all bends are 1/2
                                                      My Name is Mud._
e|-----------)(--------------)(--|-----------)(-------------------|
B|-----0---12)(---------0---8)(--|-----0---12)(-------0-----------|
G|-----0---12--------)--0---8----|-----0---12------)--0-----------|
D|--5---------------5)-----------|--5-------------5)--------------|
A|--4---------------4------------|--4-------------4---------------|
                                  Rhy. Fig. 1---------------------|
Rhy. Fig. 1 x1 then
G|--0--0--|
[ Tab from: http://www.guitartabs.cc/tabs/p/primus/my_name_is_mud_tab_ver_2.html ]
Bass (w/Rhy. Fig. 1 x7)                   Substitute Rhy. Fill 1
M-M-M-M-M-M-M-Mud                  My Name is Mud._
E|--------------/3--------3h4h5-4h5h6-6-X-X-5h6h7--|
B|--1h3-3--1h3-3----1h3-3--------------------------|

A|------------------/10------------------(9)\--|-----------------------------------|
E|--8h10-10--8h10-10-----8h10-10--8h10-10------|--------------/3-------------(2)/--|x3
B|---------------------------------------------|--1h3-3--1h3-3---1h3-3--1h3-3------|

Rhy. Fill 1                      trem. bar(pull up 1/2)
                            Harm.-----------|
e|------------)(1/2---------7--7------------|
B|-----0----12)(------------7--7------------|
G|-----0----12--------)1/2--7--7------------|
D|--5----------------5)---------------------|
A|--4----------------4----------------------|

Bass fig. 2 x1
                                            w/dist.------|
A|------------------/10----------------------------------|
E|--8h10-10--8h10-10-----8h10-10--8h10-10----------------|
B|------------------------------------------0------------|

Guitar Solo 2 (w/Leslie effect) (w/Bass fig. 2 x4)
G|-----5v-------0-------|----------6---------------|
D|--4---------------4v--|---4--0-5---0-0-5-5-0-----|
A|----------------------|----------------------0-4-|
                                     Harm.7
B|-----------------------4-0-----7--|--7------------4-------7--7--------|
G|---------------6---0-3-----0-6----|-------6-6-0-3---3-0-6------6---0--|
D|---------0-5-5--------------------|-----0------------------------8----|
A|-0-4-0-0--------------------------|-----------------------------------|

w/Bass Fig. 1 x8      Harm.5
B|--4-------------------------------------------|------------------------------------|
G|----3-0-6---0--0--0--5--0-0-0--0-0------------|------------------------------------|
D|----------------------------------------------|------------------------------------|
A|------------------------------------4---4--4--|------------------------------------|
E|------------------------------------0---0--0--|--2--2--2/14--14-0-14-14-0-0-14-14--|

G|-------------------------------------11-11-11--|
D|----------------------------10-10-10-----------|
A|-----------------------9-----------------------|
E|--14-0-14-14-0-14-14-0-------------------------|

                      1/2      Full
B|--------------------)--------)(--)---12v--|
G|--11--11--11---11-11-11-11-11--11---------|
D|------10----------------------------------|
    
    Full---------|
e|-------------------14-14-------14-14-14-----------|
B|----)-----------12-------12-12--------------------|
G|--11---11v------------------------------11-11-11--|

                            Full----hold----gradual--release
B|----------------------------)-------------------------------|
G|--11---11-11-11-11-11--11-11-11-11-11---11--11--11--11--11--|

                      release
B|--------------------(--Harm.4---|
G|--11--11--11--11--11\--=--------|
D|------------------==---4--------|
                    ==   =

(w/Bass Fig. 2 x2)
G|--------------|--5---------------------|
D|------4/------|--7---------------------|
A|------==------|--=---------------------|
E|------==------|--=-----------(15)\-----|
        ==         =

Outro (w/Bass Fig. 1 x9)
C|-------------------------------5----|
G|-------------------------------5----|
D|-------------------------------5----|
A|-------------------------------5----|
E|--------------/3--------------------|
B|--1h3-3--1h3-3----1h3-3--1h3-3------|

I know this tab is totally correct because I got it from the official
Primus anthology tab book.  I got sick of seeing all of the incorrect
bass tabs, and no one seemed to even try to get the guitar.  E-mail me
if you want any different tabs by Primus. corneliusthepoptart@yahoo.com
Right now I only have A-N, but I'm going to get O-Z.  A-N has Bob, DMV,
Eleven, Fish On, Groundhog's Day, John the Fisherman, My Name is Mud,
Nature Boy, Here Come the Bastards, Jerry Was a Race Car Driver, and
Mr. Krinkle.  Although you probably won't be able to play any of it.
Most of the songs are played on a six-string fretless.

Lyrics:
My Name is Mud, not to be confused with Bill or Jack or Pete or Dennis,
My Name is Mud, it's always been, 'cause I'm the most boring sonsabitch
you've ever seen, I dress in blue, yes navy blue, from head to toe I'm
rather drab, except my patent shoes, I make 'em shine, well most the
time, 'cept today my feet were trodden on by this friend of mine, six
foot two and rude as hell, I gotta get in the ground before he starts
to smell, My Name is Mud
My Name is Mud, but call me Alowishus Devadander Abercrombie, that's
long for Mud, so I've been told, told that by this sonsabitch that lies
before me bloated, blue and cold, I've got my pride, I drink my wine, I
drink only the finest 'cept I haven't earned a dime in several months,
or were it years, the breath on that fat bastard could bring any man to
tears, we had our words, a common spat, so I kissed him upside the 
cranium with an aluminium baseball bat, My Name is Mud
Comments