Primus - My Name Is Mud Chords & Tabs

 

My Name Is Mud Chords & Tabs

Primus Chords & Tabs

Version: 1 Type: Tab 0 ratings
1 star 2 stars 3 stars 4 stars 5 stars
comments

My Name Is Mud Tab

My Name is Mud
[ Tab from: http://www.guitartabs.cc/tabs/p/primus/my_name_is_mud_tab.html ]
Pre-Solo
|--------------------------------|---------------------------------------|
|------0--12b--------0-----------|------0--12b--------0------------------|
|------0--12b--------0--2b---4---|------0--12b--------0--7--7--7--7--0---|
|---5------------5b--------------|---5------------5b---------------------|
|---4------------4b--------------|---4------------4b---------------------|
|--------------------------------|---------------------------------------|

|------------------------------|----------------------------|
|------0--12b---------0----0---|------0--12b-------0--------|
|------0--12b---------0----0---|------0--12b-------0--------|
|---5-------------5b-----------|---5------------5------9b---|
|---4-------------4b-----------|---4------------4-----------|
|------------------------------|----------------------------|
I'll have the rest later
Comments