Primus - My Name Is Mud Chords & Tabs

 

My Name Is Mud Chords & Tabs

Primus Chords & Tabs

Version: 1 Type: Bass Tab 0 ratings
1 star 2 stars 3 stars 4 stars 5 stars
comments

My Name Is Mud Bass Tab

PRIMUS
"MY NAME IS MUD" off of Pork Soda
transcribed by Tyler Edwards

This is a fairly easy song, has alot of slap and pop (p= pop, s= slap)

      Intro and Mostly anything with out him singing (main riff)
    s   s      p
g|----------------------------|
d|----------------------------|
a|----------------------------|
e|-------------2------------2-|
b|--0h2-0h2-p0---0h2-0h2-p0---|
[ Tab from: http://www.guitartabs.cc/tabs/p/primus/my_name_is_mud_btab.html ]
   its hard to describe a xhx , u slap an x and just hammer on without 
pushing all the way down on the fret u should get it by listening to the 
song
   Verse (when he sings)
   s   s   p  s   s   p
g|-----------------------|
d|-----------------------|
a|-----------------------|
e|---------x-----------x-|   sometimes he leaves out that last pop
b|-xhx-xhx----xhx-xhx----|

  Sometimes he does this

g|------------------------------------------------------|
d|------------------------------------------------------|
a|-----------------------------------10------------10\--|
e|---------2--------2/----8h10--8h10----8h10--8h10------|
b|-0h2-0h2---0h2-0h2------------------------------------|

he also throws alot of variations in there that im sure u can figure it out

e-mail if u want more tabs : korn4_@hotmail.com
if u have icq please contact me, my icq number is 37134476

Comments