Primus - Mrs Blaileen Chords & Tabs

 

Mrs Blaileen Chords & Tabs

Primus Chords & Tabs

Version: 1 Type: Bass Tab 0 ratings
1 star 2 stars 3 stars 4 stars 5 stars
comments

Mrs Blaileen Bass Tab

   
__________________________________________________
--------------------------------------------------
"Mrs. Blaileen" from the album "Tales From the Punchbowl"
__________________________________________________
--------------------------------------------------

Tabbed by: Temesgen Wubneh (Temesgen.Wubneh@p0.f138.n2625.z1.fidonet.org; 
	   Twub@aol.com or Temesgen.Wubneh@mhs.lmc.org
	Detune "E" to "D"
*=Coda
[ Tab from: http://www.guitartabs.cc/tabs/p/primus/mrs_blaileen_btab.html ]
                     *
  (Main riff)                            
|-------xx-10-10------------------xx-10-10---------------xx-13-13-----------|
|-------xx-10-10------------------xx-10-10---------------xx-13-13-----------|
|---------------------------------------------------------------------------|
|--0h--2-----------0h-2-3/5--0h-2----------0h-2-3/5--7/8-----------7/8-5\3--|

			       
|------------------------|
|7/8-----------7/8-5\3---|

   
  (Chorus) 
   "Oh What a lonely..."
G:------------------------|
D:------------------------|
A:------------------------|
D:--3----------2--1-------|



  =-->  *                                   
  | 
  | (Bridge)
|-10------------4-3-2--------------4-3-2-2-------|
|-10-------------------4-3-2--------------4-3-2-2|
|------------------------------------------------|
|------------------------------------------------|


Comments