Primus - Mama Didnt Raise No Fool Chords & Tabs

 

Mama Didnt Raise No Fool Chords & Tabs

Primus Chords & Tabs

Version: 1 Type: Bass Tab 0 ratings
1 star 2 stars 3 stars 4 stars 5 stars
comments

Mama Didnt Raise No Fool Bass Tab

here
  +Mama Didnt Raise No Fool - Primus
  +Tabbed by Neal Conway - damnsaxon@aol.com
--------------------------------------------
All the parts are here. If you play with the cd it 
should be easy. 
the notes for the guitar intro are B and D 
--------------------------------------------
  
   Verse:
g ----------------------------------------------------
d ----------------------------------------------------
a --2p0h2-----------2p0h2-----------2p0h2-------------
e ----------------------------------------------------
[ Tab from: http://www.guitartabs.cc/tabs/p/primus/mama_didnt_raise_no_fool_btab.html ]
   Chorus:
g ----------7---------------------7-------------------
d ----------7---------------------7-------------------
a -2--2-2-----2----------2--2-2-----2-----------------
e ----------------------------------------------------
*Only play these parts during the 2nd and 3rd choruses.   
    
*g ----------------------------------------------------
*d ----------------------------------------------------
*a -2---------5---------2---------5--------------------
*e ----------------------------------------------------

*g ----------------------------------------------------
*d ----------------------------------------------------
*a --2--2--2-0-2-3----2--2--2-0-2-3--------------------
*e ----------------------------------------------------

i didnt do a good job explaining when to play which part, 
so i strongly suggest using the cd to get the timing of the 
them. 
Comments