Primus - Lacquer Head Chords & Tabs

 

Lacquer Head Chords & Tabs

Primus Chords & Tabs

Version: 2 Type: Tab 0 ratings
1 star 2 stars 3 stars 4 stars 5 stars
comments

Lacquer Head Tab

   
#----------------------------------PLEASE NOTE---------------------------------#
#This file is the author's own work and represents their interpretation of the #
#song. You may only use this file for private study, scholarship, or research. #
#------------------------------------------------------------------------------##

                                   LAUQUERHEAD
                              As recorded by Primus
                          (From the 1999 Album ANTIPOP)

Words and Music by Primus
Arranged by James Stewart


Gtr I (D A D G B E) - 'Untitled'

 Intro
  Q=113
 4/4
  Gtr I
  Wx8
|--------|
|--------|
|--------|
|--------|
|--------|
|--------|


   Verse
                               1.,2.,3.
       N.C.
    Q  q  q  q    q  q  q  q    q  q  q  q    q  q  q  q    4x
||-----2-----2--|----2-----2--|----2-----2--|----2-----2----||
||o----1-----1--|----1-----1--|----1-----1--|----1-----1---o||
||--------------|-------------|-------------|---------------||
||--------------|-------------|-------------|---------------||
||o-------------|-------------|-------------|--------------o||
||--------------|-------------|-------------|---------------||


 Chorus
  4.
  Gmaj7sus4/C
  S +S  S S S S S S S S S S S S +S  S
|-----------------------8-8-8-8-(8)-8-|
|-----------------7-7-7---------------|
|---------------5---------------------|
|-----------5-5-----------------------|
|-3-(3)-3-3---------------------------|
|-------------------------------------|


  Bbmaj7sus4/Eb
  S S S S S S S  S  S  S  S  S  S  S  +S   S
|------------------------11-11-11-11-(11)-11-|
|---------------10-10-10---------------------|
|-------------8------------------------------|
|---------8-8--------------------------------|
|-6-6-6-6------------------------------------|
|--------------------------------------------|


  E5F5  F5   F5F#E5F5  E5F5  F5   F5F#E5F5    Gmaj7sus4/C
             PM----|              PM----|
  S S E  Q   E E E E   S S E  Q   E E E E   S +S  S S S S S S S S S S S S +S  S
|--------------------|--------------------|-----------------------8-8-8-8-(8)-8-|
|--------------------|--------------------|-----------------7-7-7---------------|
|-------10\----------|-------10\----------|---------------5---------------------|
|-2h3---10\--3-4-2-3-|-2h3---10\--3-4-2-3-|-----------5-5-----------------------|
|-2h3----8\--3-4-2-3-|-2h3----8\--3-4-2-3-|-3-(3)-3-3---------------------------|
|-2h3--------3-4-2-3-|-2h3--------3-4-2-3-|-------------------------------------|


  Gmaj7sus4/C
  S S S S S S S  S  S  S  S  S  S  S  +S   S
|------------------------11-11-11-11-(11)-11--|
|---------------10-10-10----------------------|
|-------------8-------------------------------|
|---------8-8---------------------------------|
|-6-6-6-6-------------------------------------|
|---------------------------------------------|


  E5F5  F5   F5F#E5F5  E5F5  F5   F5F#E5F5
             PM----|              PM----|
  S S E  Q   E E E E   S S E  Q   E E E E
|--------------------|--------------------|
|--------------------|--------------------|
|-------10\----------|-------10\----------|
|-2h3---10\--3-4-2-3-|-2h3---10\--3-4-2-3-|
|-2h3----8\--3-4-2-3-|-2h3----8\--3-4-2-3-|
|-2h3--------3-4-2-3-|-2h3--------3-4-2-3-|


  E5F5  F5   F5F#E5F5  E5F5  F5   F5FE5F5
             PM----|              PM
  S S E  Q   E E E E   S S E  Q   q  Q
|--------------------|------------------|
|--------------------|------------------|
|-------10\----------|-------10\--------|
|-2h3---10\--3-4-2-3-|-2h3---10\--3-----|
|-2h3----8\--3-4-2-3-|-2h3----8\--3-----|
|-2h3--------3-4-2-3-|-2h3--------3-----|


 Bass Solo
  Wx4
|--------|
|--------|
|--------|
|--------|
|--------|
|--------|


   Verse
                               1.,2.,3.
    N.C.
    Q  q  q  q    q  q  q  q    q  q  q  q    q  q  q  q    4x
||-----2-----2--|----2-----2--|----2-----2--|----2-----2----||
||o----1-----1--|----1-----1--|----1-----1--|----1-----1---o||
||--------------|-------------|-------------|---------------||
||--------------|-------------|-------------|---------------||
||o-------------|-------------|-------------|--------------o||
||--------------|-------------|-------------|---------------||


 Chorus
  4.
  Gmaj7sus4/C
  S +S  S S S S S S S S S S S S +S  S
|-----------------------8-8-8-8-(8)-8-|
|-----------------7-7-7---------------|
|---------------5---------------------|
|-----------5-5-----------------------|
|-3-(3)-3-3---------------------------|
|-------------------------------------|


  Bbmaj7sus4/Eb
  S S S S S S S  S  S  S  S  S  S  S  +S   S
|------------------------11-11-11-11-(11)-11-|
|---------------10-10-10---------------------|
|-------------8------------------------------|
|---------8-8--------------------------------|
|-6-6-6-6------------------------------------|
|--------------------------------------------|


  E5F5  F5   F5F#E5F5  E5F5  F5   F5F#E5F5    Gmaj7sus4/C
             PM----|              PM----|
  S S E  Q   E E E E   S S E  Q   E E E E   S +S  S S S S S S S S S S S S +S  S
|--------------------|--------------------|-----------------------8-8-8-8-(8)-8-|
|--------------------|--------------------|-----------------7-7-7---------------|
|-------10\----------|-------10\----------|---------------5---------------------|
|-2h3---10\--3-4-2-3-|-2h3---10\--3-4-2-3-|-----------5-5-----------------------|
|-2h3----8\--3-4-2-3-|-2h3----8\--3-4-2-3-|-3-(3)-3-3---------------------------|
|-2h3--------3-4-2-3-|-2h3--------3-4-2-3-|-------------------------------------|


  Bbmaj7sus4/Eb
  S S S S S S S  S  S  S  S  S  S  S  +S   S
|------------------------11-11-11-11-(11)-11--|
|---------------10-10-10----------------------|
|-------------8-------------------------------|
|---------8-8---------------------------------|
|-6-6-6-6-------------------------------------|
|---------------------------------------------|

[ Tab from: http://www.guitartabs.cc/tabs/p/primus/lacquer_head_tab_ver_2.html ]
  E5F5  F5   F5F#E5F5  E5F5  F5   F5F#E5F5
             PM----|              PM----|
  S S E  Q   E E E E   S S E  Q   E E E E
|--------------------|--------------------|
|--------------------|--------------------|
|-------10\----------|-------10\----------|
|-2h3---10\--3-4-2-3-|-2h3---10\--3-4-2-3-|
|-2h3----8\--3-4-2-3-|-2h3----8\--3-4-2-3-|
|-2h3--------3-4-2-3-|-2h3--------3-4-2-3-|


  E5F5  F5   F5F#E5F5  E5F5  F5   F5
             PM----|
  S S E  Q   E E E E   S S E  Q   E E Q
|--------------------|-------------------|
|--------------------|-------------------|
|-------10\----------|-------10\---------|
|-2h3---10\--3-4-2-3-|-2h3---10\--3------|
|-2h3----8\--3-4-2-3-|-2h3----8\--3------|
|-2h3--------3-4-2-3-|-2h3--------3------|


 Bass Solo
  Wx16
|---------|
|---------|
|---------|
|---------|
|---------|
|---------|


   Guitar And Bass Solo
    D                                  D
    H         +H       +H     +H       H         +H       +H     +H
||-------------------|---------------|------------------|----------------||
||o------------------|---------------|------------------|---------------o||
||-------------------|---------------|------------------|----------------||
||-------------------|---------------|------------------|----------------||
||o-5b6.5=====(5)----|-(5)r===(5)----|-5b6.5=====(5)----|-(5)r===(5)----o||
||-------------------|---------------|------------------|----------------||


 Chorus
  Gmaj7sus4/C
  S +S  S S S S S S S S S S S S +S  S
|-----------------------8-8-8-8-(8)-8-|
|-----------------7-7-7---------------|
|---------------5---------------------|
|-----------5-5-----------------------|
|-3-(3)-3-3---------------------------|
|-------------------------------------|


  Bbmaj7sus4/Eb
  S S S S S S S  S  S  S  S  S  S  S  +S   S
|------------------------11-11-11-11-(11)-11-|
|---------------10-10-10---------------------|
|-------------8------------------------------|
|---------8-8--------------------------------|
|-6-6-6-6------------------------------------|
|--------------------------------------------|


  E5F5  F5   F5F#E5F5  E5F5  F5   F5F#E5F5    Gmaj7sus4/C
             PM----|              PM----|
  S S E  Q   E E E E   S S E  Q   E E E E   S +S  S S S S S S S S S S S S +S  S
|--------------------|--------------------|-----------------------8-8-8-8-(8)-8-|
|--------------------|--------------------|-----------------7-7-7---------------|
|-------10\----------|-------10\----------|---------------5---------------------|
|-2h3---10\--3-4-2-3-|-2h3---10\--3-4-2-3-|-----------5-5-----------------------|
|-2h3----8\--3-4-2-3-|-2h3----8\--3-4-2-3-|-3-(3)-3-3---------------------------|
|-2h3--------3-4-2-3-|-2h3--------3-4-2-3-|-------------------------------------|


  Bbmaj7sus4/Eb
  S S S S S S S  S  S  S  S  S  S  S  +S   S
|------------------------11-11-11-11-(11)-11--|
|---------------10-10-10----------------------|
|-------------8-------------------------------|
|---------8-8---------------------------------|
|-6-6-6-6-------------------------------------|
|---------------------------------------------|


    E5F5  F5   F5F#E5F5  E5F5  F5   F5F#E5F5
               PM----|              PM----|
    S S E  Q   E E E E   S S E  Q   E E E E
||---------------------|--------------------|
||o--------------------|--------------------|
||--------10\----------|-------10\----------|
||--2h3---10\--3-4-2-3-|-2h3---10\--3-4-2-3-|
||o-2h3----8\--3-4-2-3-|-2h3----8\--3-4-2-3-|
||--2h3--------3-4-2-3-|-2h3--------3-4-2-3-|


 1.
  E5F5  F5   F5F#E5F5  E5F5  F5   F5F#E5F5
             PM----|              PM----|
  S S E  Q   E E E E   S S E  Q   E E E E
|--------------------|----------------------||
|--------------------|---------------------o||
|-------10\----------|-------10\------------||
|-2h3---10\--3-4-2-3-|-2h3---10\--3-4-2-3---||
|-2h3----8\--3-4-2-3-|-2h3----8\--3-4-2-3--o||
|-2h3--------3-4-2-3-|-2h3--------3-4-2-3---||


 Outro
  2.
  E5F5  F5   E5F5  F5     E5F5  F5   E5F5  F5
  S S E  Q   S S E  Q     S S E  Q   S S E  Q
|-----------------------|-----------------------|
|-----------------------|-----------------------|
|-------10\--------10\--|-------10\--------10\--|
|-2h3---10\--2h3---10\--|-2h3---10\--2h3---10\--|
|-2h3----8\--2h3----8\--|-2h3----8\--2h3----8\--|
|-2h3--------2h3--------|-2h3--------2h3--------|


  E5F5  F5   E5F5  F5     G5/D
                           TP
  S S E  Q   S S E  Q      W
|-----------------------|-(3)/----|
|-----------------------|-(3)/----|
|-------10\--------10\--|---------|
|-2h3---10\--2h3---10\--|---------|
|-2h3----8\--2h3----8\--|---------|
|-2h3--------2h3--------|---------|


  C5
  W          +W           +W
|----------|------------|--------*|
|----------|------------|--------*|
|-5--------|-(5)--------|-(5)----*|
|-5--------|-(5)--------|-(5)----*|
|-3--------|-(3)--------|-(3)----*|
|----------|------------|--------*|


Duration Legend
---------------
W - whole; H - half; Q - quarter; E - 8th; S - 16th; T - 32nd; X - 64th; a - acciaccatura
+ - note tied to previous; . - note dotted; .. - note double dotted
Uncapitalized letters represent notes that are staccato (1/2 duration)
Irregular groupings are notated above the duration line
Duration letters will always appear directly above the note/fret number it represents the
duration for.  Duration letters with no fret number below them represent rests.  Multi-
bar rests are notated in the form Wxn, where n is the number of bars to rest for.  Low
melody durations appear below the staff

Tablature Legend
----------------
 h   - hammer-on
 p   - pull-off
 b   - bend
 pb  - pre-bend
 r   - bend release (if no number after the r, then release immediately)
 /\  - slide into or out of (from/to "nowhere")
 s   - legato slide
 S   - shift slide
  - natural harmonic
[n]  - artificial harmonic
n(n) - tapped harmonic
 ~   - vibrato
 tr  - trill
 T   - tap
 TP  - trem. picking
 PM  - palm muting
\n/  - tremolo bar dip; n = amount to dip
 \n  - tremolo bar down
 n/  - tremolo bar up
/n\  - tremolo bar inverted dip
 =   - hold bend; also acts as connecting device for hammers/pulls
 <>  - volume swell (louder/softer)
 x   - on rhythm slash represents muted slash
 o   - on rhythm slash represents single note slash

Misc Legend
-----------
 |  - bar
||  - double bar
||o - repeat start
o|| - repeat end
*|  - double bar (ending)
 :  - bar (freetime)
 $  - Segno
 &  - Coda
Tempo markers -  = BPM(8/16=s8/s16), where s8 = swing 8ths, s16 = swing 16ths
Comments