Primus - John The Fisherman Chords & Tabs

 

John The Fisherman Chords & Tabs

Primus Chords & Tabs

Version: 1 Type: Tab 0 ratings
1 star 2 stars 3 stars 4 stars 5 stars
comments

John The Fisherman Tab

John The Fisherman
Primus
Frizzle Fry


h =hammer on
/ =slide up
 =slide down
v =vibrato



Intro:
e------------------------------------------------------------
B------------------------------------------------------------
G--4-5-6--4-5-6--4-5-6--4-5-6--4-5-6--4-5-6----4-5/7-6-------
D--4-5-6--4-5-6--4-5-6--4-5-6--4-5-6--4-5-6----4-5/7-6-------
A--2-3-4--2-3-4--2-3-4--2-3-4--2-3-4--2-3-4----2-3/5-4-------
E------------------------------------------------------------


The verses of the song all follow this basic structure. There
are a few different variations you can listen for, but in
general, they are played like this a couple times with a
slight change at the end before the song moves to a chorus.

Verse:                                             v
e----------------------------------------------13--10--------
B--/9--/9---/9--/9---/6--/9--/9---/9--/12--/12---------------
G--/10-/10--/10-/10--/7--/10-/10--/10-/13--------------------
D---------------------0--------------------------------------
A------------------------------------------------------------
E------------------------------------------------------------


This is the basic chorus line. Repeat a couple times adding
subtle differences here and there, like sliding up to the
9th fret on the B and e strings and down again. Listen to
the song to see what I mean.
[ Tab from: http://www.guitartabs.cc/tabs/p/primus/john_the_fisherman_tab.html ]
Chorus:
e-----------------9--------------------9--------------------9
B-----------------9--------------------9--------------------9
G--4-5/7-6---------------------------------------------------
D--4-5/7-6--4-5-6---4-5-6--5/7-6-4-5-6---4-5-6--5/7-6-4-5-6--
A--2-3/5-4--2-3-4---2-3-4--3/5-4-2-3-4---2-3-4--3/5-4-2-3-4--
E-0----------------------------------------------------------


e---------------------9--------------------------------------
B---------------------9--------------------------------------
G------------------------------------------------------------
D--4-5-6--5/7-6-4-5-6---4-5-6--------------------------------
A--2-3-4--3/5-4-2-3-4---2-3-4--------------------------------
E------------------------------------------------------------


Bridge/Solo:
e------------------------------------------------------------
B------------------------------------------------------------
G--4-5-7-6--6-6--------------7--7-6--6-6------------7---2----
D--4-5-7-6--6-6------------0-5--7-6--6-6------------4-7-2----
A--2-3-5-4--0-4-------0h2h3-----5-4--0-4-------0h3h5--5-0----
E----------------0h2h3--------------------0h2h3---------0----

                                                  v
e------------------------------------------------------------
B-----------------7---7-----6---6-----------------9----------
G--4-5-7-6--4-6-7---7---7-6---6---6--/10------10------------
D--4-5-7-6---------------------------/11--------------------
A--2-3-5-4---------------------------------/11---------------
E------------------------------------------------------------

 Itlof
Comments