Primus - Is It Luck Chords & Tabs

 

Is It Luck Chords & Tabs

Primus Chords & Tabs

Version: 3 Type: Bass Tab 0 ratings
1 star 2 stars 3 stars 4 stars 5 stars
comments

Is It Luck Bass Tab

Intro
G|----0h7--------0h6-----------|----0h9--------0h8-----------|
D|-x------8--0h6-----7p0-0h6---|-x------10-0h8-----9p0-0h8---|
A|-----------------------------|-----------------------------|
E|-----------------------------|-----------------------------|

G|----0h7--------0h6-----------|----0h9--------0h8-----/15\--|
D|-x------8--0h6-----7p0-0h6---|-x------10-0h8-----9p0-------|
A|-----------------------------|-----------------------------|
E|-----------------------------|-----------------------------|


First Guitar Solo
G|----0h7--------0h6-----------|----0h9--------0h8-----------|
D|--------8--0h6-----7p0-0h6---|--------10-0h8-----9p0-0h8---|
A|-----------------------------|-----------------------------| x4
E|-----------------------------|-----------------------------|

G|--3------3---3---------------|--3------3---3---------------|
D|--3------3---3---------------|--3------3---3---------------|
A|-/5------5---5---------------|-/5------5---5---------------|
E|-----------------------------|-----------------------------|

G|-----------------------------|-----------------------------|
D|--9------9---7-------2-------|-2/--------------(/14)-------|
A|--9------9---7-------2-------|-----------------------------|
E|--7------7---5-------0-------|-----------------------------|

G|----0h7--------0h6-----------|----0h9--------0h8-----------|
D|--------8--0h6-----7p0-0h6---|--------10-0h8-----9p0-0h8---|
A|-----------------------------|-----------------------------|
E|-----------------------------|-----------------------------|

G|----0h7--------0h6-----------|----0h9--------0h8-----/15\--|
D|--------8--0h6-----7p0-0h6---|--------10-0h8-----9p0-------|
A|-----------------------------|-----------------------------|
E|-----------------------------|-----------------------------|

G|----0h7--------0h6-----------|----0h9--------0h8-----------|
D|--------8--0h6-----7p0-0h6---|--------10-0h8-----9p0-0h8---|
A|-----------------------------|-----------------------------| x2
E|-----------------------------|-----------------------------|


First Verse
G|----0h7--------0h6-----------|----0h9--------0h8-----------|
D|--------8--0h6-----7p0-0h6---|--------10-0h8-----9p0-0h8---|
A|-----------------------------|-----------------------------| x8
E|-----------------------------|-----------------------------|


First Chorus
G|----0h7--------0h6-----------|----0h9--------0h8-----------|
D|--------8--0h6-----7p0-0h6---|--------10-0h8-----9p0-0h8---|
A|-----------------------------|-----------------------------| x3
E|-----------------------------|-----------------------------|

G|----0h7--------0h6-----------|----0h9--------0h8-----/15\--|
D|--------8--0h6-----7p0-0h6---|--------10-0h8-----9p0-------|
A|-----------------------------|-----------------------------|
E|-----------------------------|-----------------------------|


Second Verse
G|----0h7--------0h6-----------|----0h9--------0h8-----------|
D|--------8--0h6-----7p0-0h6---|--------10-0h8-----9p0-0h8---|
A|-----------------------------|-----------------------------| x8
E|-----------------------------|-----------------------------|


Second Chorus
G|----0h7--------0h6-----------|----0h9--------0h8-----------|
D|--------8--0h6-----7p0-0h6---|--------10-0h8-----9p0-0h8---|
A|-----------------------------|-----------------------------| x3
E|-----------------------------|-----------------------------|

G|----0h7--------0h6-----------|----0h9--------0h8-----/15\--|
D|--------8--0h6-----7p0-0h6---|--------10-0h8-----9p0-------|
A|-----------------------------|-----------------------------|
E|-----------------------------|-----------------------------|


Second Guitar Solo
G|----0h7--------0h6-----------|----0h9--------0h8-----------|
D|--------8--0h6-----7p0-0h6---|--------10-0h8-----9p0-0h8---|
A|-----------------------------|-----------------------------| x8
E|-----------------------------|-----------------------------|

[ Tab from: http://www.guitartabs.cc/tabs/p/primus/is_it_luck_btab_ver_3.html ]
Third Verse
G|----0h7--------0h6-----------|----0h9--------0h8-----------|
D|--------8--0h6-----7p0-0h6---|--------10-0h8-----9p0-0h8---|
A|-----------------------------|-----------------------------| x8
E|-----------------------------|-----------------------------|


Third Chorus
G|----0h7--------0h6-----------|----0h9--------0h8-----------|
D|--------8--0h6-----7p0-0h6---|--------10-0h8-----9p0-0h8---|
A|-----------------------------|-----------------------------| x4
E|-----------------------------|-----------------------------|


Interlude
G|-----------------------------|-----------------------------|
D|-5------------(2)------------|-(2)--------------------(5)--|
A|-5------------(2)------------|-(2)--------------------(5)--|
E|-----------------------------|-----------------------------|
   Lower with bar                                       Pull up quickly

G|-----------------------------|-----------------------------|
D|-----------------------------|-----------------------------|
A|-4------------(1)------------|-(1)------(2)---(3)---(4)----|
E|-----------------------------|-----------------------------|
   Lower with bar                          Pull up gradually

G|-----------------------------|-----------------------------|
D|--------5--------------------|-----------------------------|
A|-----------------------------|-5---------------------------|
E|---------------x------0------|--------x------0------0------|

G|-----------------------------|-----------------------------|
D|-----------------------------|-----------------------------|
A|-x---5---(0)-----------------|-(1)----(2)----(3)----(5)----|
E|-----------------------------|-----------------------------|
       Lower with bar            Pull up gradually

G|-----------------------------|-----------------------------|
D|-----------------------------|-----------------------------|
A|-----------------------------|-----------------------------| x7
E|-----------------------------|-----------------------------|

G|-----------------------------|-----------------------------|
D|-----------------------------|-----------------------------|
A|-----------------------------|-----------------------------| 
E|-0---------------------------|-----------------------------|

G|-----------------------------|-----------------------------|
D|-----------------------------|-----------------------------|
A|-----------------------------|-----------------------------| x6
E|-----------------------------|-----------------------------|


Fourth Chorus
G|-----------------------------|----0h7--------0h6-----------|
D|-----------------------------|--------8--0h6-----7p0-0h6---|
A|-/17\---/17\---/17\----------|-----------------------------|
E|-----------------------------|-----------------------------|

G|----0h9--------0h8-----------|----0h7--------0h6-----------|
D|--------10-0h8-----9p0-0h8---|--------8--0h6-----7p0-0h6---|
A|-----------------------------|-----------------------------| x2
E|-----------------------------|-----------------------------|

G|----0h9--------0h8-----------|-----------------------------|
D|--------10-0h8-----9p0-0h8---|-/7-----/7-----/7-----/7-----|
A|-----------------------------|-/5-----/5-----/5-----/5-----|
E|-----------------------------|-----------------------------|

G|-----------------------------|----0h7--------0h6-----------|
D|-/7-----/7-------------------|--------8--0h6-----7p0-0h6---|
A|-/5-----/5-------------------|-----------------------------|
E|---------------7-----7/10----|-----------------------------|

G|----0h9--------0h8-----------|----0h9--------0h8-----------|
D|--------10-0h8-----9p0-0h8---|--------10-0h8-----9p0-0h8---|
A|-----------------------------|-----------------------------|
E|-----------------------------|-----------------------------|

G|----0h9----------------------|-----------------------------|
D|--------10-------------------|-----------------------------|
A|---------------10--0--0--0---|-----------------------------|
E|-----------------------------|-2p0-------------------------|
Comments