Primus - Here Come The Bastards Chords & Tabs

 

Here Come The Bastards Chords & Tabs

Primus Chords & Tabs

Version: 2 Type: Bass Tab 0 ratings
1 star 2 stars 3 stars 4 stars 5 stars
comments

Here Come The Bastards Bass Tab

From: Primus8@aol.com
Music by Primus, Words by Les Claypool

__________________________________________________
--------------------------------------------------
"Here Come The Bastards" from "Sailing The Seas Of Cheese"
__________________________________________________
--------------------------------------------------
Tabbed by Christopher Preston
[ Tab from: http://www.guitartabs.cc/tabs/p/primus/here_come_the_bastards_btab_ver_2.html ]
	This song is a variation of two riffs; I'm not sure when each is 
used, but riff 1 is used for the intro.  There is a fill for each riff.

Intro + Riff 1:
|----------------------|
|*---9--9--9-9-10-10--*|
|*---7--7--7-7-8--8---*|
|----------------------|

Riff 1 Fill:
|-----------------------|
|*---9--9/--9-9-10-10--*|
|*---7--7/--7-7-8--8---*|
|-----------------------|

Riff 2:
|-----------------|
|*---------------*|
|*---------------*|
|--0--0--0-0-1-1--|

Riff 2 Fill:
|------------------|
|*----------------*|
|*------|---------*|
|--0--0/--0-0-1-1--|


Comments