Primus - Groundhogs Day Chords & Tabs

 

Groundhogs Day Chords & Tabs

Primus Chords & Tabs

Version: 1 Type: Bass Tab 0 ratings
1 star 2 stars 3 stars 4 stars 5 stars
comments

Groundhogs Day Bass Tab

From: Primus8@aol.com
Music by Primus, Words by Les Claypool

__________________________________________________
--------------------------------------------------
"Ground Hog's Day" from "Frizzle Fry"
__________________________________________________
--------------------------------------------------

Tabbed by Jeffrey Swing/Christopher Preston
[ Tab from: http://www.guitartabs.cc/tabs/p/primus/groundhogs_day_btab.html ]
	The whole song is mostly the same riff, but the interlude is
different.  The fill should be used in the interlude.  The Interlude is also 
the Chorus riff, but the chorus version has more muted notes.
Intro + Verses + Choruses:
								   X times
|--15------|--15-15-15-15-|--15-15-15-15--|--15--X-15--X-|--15-15-15-15--|
|--14------|*-14-14-14-14-|--14-14-14-14--|--14--X-14--X-|--12-12-13-13-*|
|--15------|*-15-15-15-15-|--15-15-15-15--|--15--X-15--X-|--13-13-14-14-*|
|----------|--------------|---------------|--------------|---------------|



Interlude + Guitar Solo: 
|--6\----------------|---------------|
|*-6\----------------|-----XP----XP-*|
|*-4\---6S-7h--6S-7h-|--XS----XS----*|
|--------------------|---------------|

**Interlude fill:
|-------------------------|
|-6---7---8---9---10--11--|
|-4---5---6---7---8---9---|
|-------------------------|
 

Comments