Primus - Electric Uncle Sam Chords & Tabs

 

Electric Uncle Sam Chords & Tabs

Primus Chords & Tabs

Version: 1 Type: Bass Tab 0 ratings
1 star 2 stars 3 stars 4 stars 5 stars
comments

Electric Uncle Sam Bass Tab

her it is, off the new cd "the antipop"


     Neal
  +Electric Uncle Sam - Primus
  +tabbed by Neal conway damnsaxon@aol.com
------------------------------------------
arranged for a 4 sting * if you have a 5/6 sting, drop this an octave 
except fot the intro.
------------------------------------------
  intro:
g---------------------------------------------------------------------
d---------------------------------------------------------------------
a---------------------------------------------------------------------
e----5p4p3--5p4p3--5p4p3--5p4p3---------------------------------------
[ Tab from: http://www.guitartabs.cc/tabs/p/primus/electric_uncle_sam_btab.html ]
  chorus:               only play the *fill* the first time through
g---------------------------------------------------------------------
d-----------------------------------------------------*5h7h8-5h7h8*---
a----7-777-5-7----7-777-5-7----7-777-5-7----7-777-5-7-----------------
e---------------------------------------------------------------------

  verse (main riff):
g---------------------------------------------------------------------
d-----------------------------------------------5-5-------------------
a----7--5-7----7--7-7-5-7--7p6p5----7--5-7--4-4-----4-4-5h-6h-7-------
e---------------------------------------------------------------------

  bridge:
g---------------------------------------------------------------------
d---------------------------------------------------------------------
a--7-7-5-7----7-7-5-7----7-7-5-7----7-7-5-7----7-7-5-7----7-7-5-7-----
e---------------------------------------------------------------------

g---------------------------------------------------------------------
d-----------5--5-----------5--5-----------5--5-----------5--5---------
a--7-7-5-7--------7-7-5-7--------7-7-5-7--------7-7-5-7---------------
e---------------------------------------------------------------------

Comments