Primus - De Anza Jig Chords & Tabs

 

De Anza Jig Chords & Tabs

Primus Chords & Tabs

Version: 2 Type: Bass Tab 0 ratings
1 star 2 stars 3 stars 4 stars 5 stars
comments

De Anza Jig Bass Tab

De Anza Jig
From "Tales From The Punchbowl"
Written by Primus
Tabbed by snark@rain.org (Nathan Welton)


Have fun, folks.

Guitar - I have no idea!  I can't play guitar to save my life.

Bass -
   Intro : 
|-------------------------------------------|
|-------------------------------------------|
|-------------------------------------------|
|-8-3-8-3-8-3-8-3-8-3 And so on and so forth|
[ Tab from: http://www.guitartabs.cc/tabs/p/primus/de_anza_jig_btab_ver_2.html ]
   Verse :
|--------9999-7-----|-9999-7---------------|
|---------------10-5|---------10-5---------|
|---7-10------------|---------------5-5-7-5|
|-8-----------------|----------------------|

|--------9999-7-----|-9-7--------------------|
|---------------10-5|------10-10-7-5-5-------|
|---7-10------------|------------------7-5--8|
|-8-----------------|------------------------|

Chorus :

   Same as the intro, more or less...
|-----------------------------------|
|-----------------------------------|
|-----------------------------------|
|-8-3-8-3-8-3-8-3-12-8-12-8---10--10|
                                                          
The last two notes (the two D's, the "...-10-10|")is a turnaround every
few measures, and it goes "...-12-16-10|"
Comments