Primus - Bob Chords & Tabs

 

Bob Chords & Tabs

Primus Chords & Tabs

Version: 2 Type: Bass Tab 0 ratings
1 star 2 stars 3 stars 4 stars 5 stars
comments

Bob Bass Tab

From: Primus8@aol.com

PRIMUS8@AOL.COM
Music by Primus, Words by Les Claypool
__________________________________________________
--------------------------------------------------                   
                                          
"Bob" from "Pork Soda"
__________________________________________________
--------------------------------------------------
Tabbed by Christopher Preston
	
	This is played on a 6 string frettless, but I've figured it out 
on a 4 string fretless.  It can be done on a fretted, but it doesn't 
sound as good. Drop the "E" to "D", and finger each note, until the 
intro/verseriff, which is slapped.  The chorus is fingernail strummed, 
with the low note slapped.

Intro:
|--------11----12------------|-------11----12-12-12-12-11----------------| 
|*-0--12----13----13--9-\sl-*|-0--12----12----------------12--12-11h-12h-|
|*--------------------------*|-------------------------------------------|
|----------------------------|-------------------------------------------|
[ Tab from: http://www.guitartabs.cc/tabs/p/primus/bob_btab_ver_2.html ]
		  Intro/Verse:                 28 times
|-------------------|----------7---|---------5---|
|-7-6-7h-6h---------|*---------7---|---------5--*|
|-----------7-6-7-7-|*-------------I------------*|
|-------------------|---0/6--x-----I-6\0--x------|

Chorus:       9 times
|--4-/-5------|
|*-4-/-5------|
|*-2-/-5------|
|--------6\---|


"Solo"/Verse:         28 times Chorus:       9 times
|----------7---|---------5---||--4-/-5-------|
|*---------7---|---------5--*||*-4-/-5------*|
|*-------------|------------*||*-2-/-5------*|
|---0/6--x-----|-6\0--x------||--------6\----|

Pre Solo:
|--------11----12------------|-------11----12-12-12-12-11----------------| 
|*-0--12----13----13--9-\sl-*|-0--12----12----------------12--12-11h-12h-|
|*--------------------------*|-------------------------------------------|
|----------------------------|-------------------------------------------|

		  Solo + Verse:      A billion times
|-----------------|----------7---|---------5---|
|-7-6-7-6---------|*---------7---|---------5--*|
|---------7-6-7-7-|*-------------|------------*|
|-----------------|---0/6--x-----|-6\0--x------|

Outro:
|--------11----12------------|
|*-0--12----13----13--9-\sl-*|
|*--------------------------*|
|----------------------------|


Comments