Primus - Ballad Of Bodacious Chords & Tabs

 

Ballad Of Bodacious Chords & Tabs

Primus Chords & Tabs

Version: 1 Type: Tab 0 ratings
1 star 2 stars 3 stars 4 stars 5 stars
comments

Ballad Of Bodacious Tab

Main Riff / Chorus
          (1/4)
e|--------------------------------|
b|---8h9-8-7b---7-7h8-------------|
g|---8h9-8-7b---7-7h8-------------|
d|---------------------   played--| x3
a|--------------------------------|
E|-0----------0-------------------|

          (1/4)
e|-------------------------|
b|---8h9-8-7b--------------|
g|---8h9-8-7b---/12----12--|
d|------------9-----14-----|
a|-------------------------|
E|-0-----------------------|


Verse

*  turn on your wah
*  turn volume knob on guitar down
*  basically just hit a E barre chord and rock back
   and forth on the wah
                              (1/4)
e|---------------------------------------------|
b|----------------------9----------------------|
g|-----9----------------9----------------------|
d|-----9----------5-----9----------------------|
a|-7-7-7--7-7-5-7---7-7---7-7------------------|
E|-----------------------------3b~~------------|
[ Tab from: http://www.guitartabs.cc/tabs/p/primus/ballad_of_bodacious_tab.html ]
Solo
e|----------------------------------------------------|
b|----------------------------------------------------|
g|-11b13-9-x-9-------9--------------9~----------------|_
d|-------------12b14---12b14-12b14-----x-x-------- ---|
a|------------------------------------------------ ---|
E|------------------------------------------------ ---|
                                                    |
e|---------------------------                       |__x3
b|-------------------10~~----                       |
g|-11b13-9-x-9-9-----10~~----                       |
d|----------------x----------                       |
a|---------------------------                       |
E|---------------------------  ---------------------|

4th time
e|---------------------------------|
b|---------------------------------|
g|-11b13r11-----------x-------9----|
d|-----------12b14-x----12b14------|
a|---------------------------------|
E|---------------------------------|
Comments