Primitives - Crash Chords & Tabs

 

Crash Chords & Tabs

Primitives Chords & Tabs

Version: 2 Type: Tab 0 ratings
1 star 2 stars 3 stars 4 stars 5 stars
comments

Crash Tab

   
Song: Crash
Artish: Primitives (Dumb and Dumber Soundtrack)
Transcribed by Richard MacNguyen 
Email me for comments or questions.


Intro Riff

---2--2--2|-4--4--4|-2--2--2|-4--4--4|
----0--0--|--0--0--|--0--0--|--0--0--|
--4--4--4-|4--4--4-|3--3--3-|4--4--4-|
----------|--------|--------|--------|
----------|--------|--------|--------|
----------|--------|--------|--------|

---2--2--2|-4--4--4|-2--2--2|---------
----0--0--|--0--0--|--0--0--|---------
--4--4--4-|4--4--4-|3--3--3-|---------
----------|--------|--------|11\------
----------|--------|--------|11\------
----------|--------|--------|9\-------


here you go way to fast...
-----------------------------------
-----------------------------------
------------------9-------------9--
---Riff A---9-----9-----11------9-- x2
------------9-----7-----11------7--
------------7-----------9----------
          
           X8    X8     X8     X8
         
           P.M. ...................

            
         

so shut , shut your mouth...
----------------------------------
----------------------------------
-----------------------9-9-xx-9-x-
---Riff B---9-9-xx-9-x-9-9-xx-9-x-
------------9-9-xx-9-x-7-7-xx-7-x-
------------7-7-xx-7-x------------

---------------------------  
--------------------------- 
----------------9-9-xx-9-x-
-11-11-xx--11-x-9-9-xx-9-x-  x2
-11-11-xx--11-x-7-7-xx-7-x-
-9--9--xx--9--x------------


Riff A
so what do you want of me?

 

Guitar Riff 1
------------------------------------
------------------------------------
-----------8-9~~---8---------------- x2
-----8--9-------------9--8----------
--9---------------------------------
------------------------------------

 

na na na na na
[ Tab from: http://www.guitartabs.cc/tabs/p/primitives/crash_tab_ver_2.html ]
(Intro riff plays in background)
-----------------------------------------------------
-----------------------------------------------------
--------------9-----------9---------9----------------
-Riff C--9----9----11-----9----9----9----11----11\---
---------9----7----11-----7----9----7----11----11\---
---------7---------9-----------7---------9-----9\----

        x8    x8   x8    x8    x8   x8   x8   

        P.M. .................................


Riff A 
here you go way to fast



so shut , shut your mouth
--------------------
--------------------
-------------------- then Riff B 
-------11\---/------
-------11\---/------
--------9\---/------



Riff A
so what do you want of me?


Guitar Riff 1


Riff A
na na na na na


Riff B
na na na na na


Guitar Riff 2
---------------------------------------------
---------------------------------------------
--------------------------------------------- x2
---8-9-11-9---8-9-11-9---9-9-11-9---8-9-11-9-
-9----------9----------9----------7----------
---------------------------------------------

Guitar Riff 1 x2


Riff B (til end)

  also Guitar

  -19-  with bends and effects
  ----
  ----
  ----
  ----
  ----

 

CRASH lyrics

here you go way to fast
don't slow down you're gonna crash
you should watch - watch your stay here
don't look out you're gonna break your neck

so shut , shut your mouth
cause I'm not listening anyhow
i've had enough, enough of you
enough to last a life time through
so what do you want of me?
got no words of sympathy and if i go around with you
you know that i'll get messed up too with you

na na na na na
na na na na na

here you go way to fast
don't slow down you're gonna crash
you don't know what's been going down
you've been running all over town

so shut , shut your mouth
cause i'm not listening anyhow
i've had enough, enough of you
enough to last a life time through
so what do you want of me?
got no cure for misery and if I go around with you
you know that i'll get messed up too with you

with you
na na na na na
slow down you're gonna crash
na na na na na
slow down you're gonna crash
na na na na na
slow down you're gonna crash
Comments