Primitive Reason - El Caballero De La Triste Figura Chords & Tabs

 

El Caballero De La Triste Figura Chords & Tabs

Primitive Reason Chords & Tabs

Version: 1 Type: Bass Tab 0 ratings
1 star 2 stars 3 stars 4 stars 5 stars
comments

El Caballero De La Triste Figura Bass Tab

   
-------------------------------------------------------------------------------
	EL CABALLERO (DE LA TRISTE FIGURA) - Primitive Reason
-------------------------------------------------------------------------------

Tabbed By : Nelson Vassalo	
e-mail: marsh_grelloh@hotmail.com

Tuning: EADG

verse
G|---------------------------------------------------------------------------|
D|--2---2-22----2--2-2--0------4-4---4---4-----------------------------------|
A|---2~--2-------2~-2----30--2--2--2---2-------------------------------------|
E|-0-----------0-----------3-------------------------------------------------|

G|---------------------------------------------------------------------------|
D|--2---2-22----2---2-22-------4-4---4---4-----------------------------------|
A|---2~--2-------2~--2-------2--2--2---2-------------------------------------|
E|-0-----------0-------------------------------------------------------------|

bridge 
crescendo
G|---------------------------------------------------------------------------|
D|-------------------4---4---4---4-------------------------------------------|
A|---2---2---2---2-2---2---2---2---------------------------------------------|
E|-0---0---0---0-------------------------------------------------------------|
[ Tab from: http://www.guitartabs.cc/tabs/p/primitive_reason/el_caballero_de_la_triste_figura_btab.html ]
G|---------------------------------------------------------------------------|
D|-------------------4---4---4---4-------------------------------------------|
A|---2---2---2---2-2---2---2---2---------------------------------------------|
E|-0---0---0---0-------------------------------------------------------------|

Chorus
G|---------------------------------------------------------------------------|
D|---------------------------------------------------------------------------|
A|-----4-4h0-----44-3\-----2-2-0-0-------------------------------------------|
E|-2-2-------2-2-------2-2---------4-4---------------------------------------|

interlude
G|---------------------------------------------------------------------------|
D|---------------------------------------------------------------------------|
A|---------2-2---------------------------------------------------------------|
E|-0~----2----2-5-5~---------------------------------------------------------|

G|---------------------------------------------------------------------------|
D|-----2-2-----2-------------------------------------------------------------|
A|---------2-x--------2---2----------5-5-2-x-5---2-2-------------------------|
E|----------------0-2---4---4-2-0-2------------2----2-5-5--------------------|

| /  slide up
| \  slide down
| h  hammer-on
| p  pull-off
| ~  vibrato
| +  harmonic
| x  Mute note
===============================================================================
Comments