Primer 55 - Loose Chords & Tabs

 

Loose Chords & Tabs

Primer 55 Chords & Tabs

Version: 1 Type: Tab 0 ratings
1 star 2 stars 3 stars 4 stars 5 stars
comments

Loose Tab

   
Title: Loose
Album: Introduction To Mayhem
Transcribed by: Billy Donovan
Email: master_billy16@hotmail.com

This song is a half step down from Drop D
Db Ab Db Gb Bb Eb

--------------------|----------------------------------------------------
--------------------|----------------------------------------------------
--------------------|----------------------------------------------------
--------------------|-2-0-0-1-0-0-2-1-0----------------------------------
--------------------|-2-0-0-1-0-0-2-1-0----------------------------------
-2-0-0-1-0-0-2-1-0--|-2-0-0-1-0-0-2-1-0----------------------------------
Intro                 Chorus and Outro
[ Tab from: http://www.guitartabs.cc/tabs/p/primer_55/loose_tab.html ]
-------------------------------------------------------------------------
-5^----------------------------------------------------------------------
-5^----------------------------------------------------------------------
-------------------------------------------------------------------------
-------------------------------------------------------------------------
-------------------------------------------------------------------------
Verse

-------------------------------------------------------------------------
-------------------------------------------------------------------------
-------------------------------------------------------------------------
-0-3---------------------------------------------------------------------
-0-3---------------------------------------------------------------------
-0-3---------------------------------------------------------------------
Bridge
Comments