Prime Circle - My Inspiration Chords & Tabs

 

My Inspiration Chords & Tabs

Prime Circle Chords & Tabs

Version: 1 Type: Tab 0 ratings
1 star 2 stars 3 stars 4 stars 5 stars
comments

My Inspiration Tab

   
Song Name - My Inspiration
By - Prime Circle
Tabbed by Brandon Matley
Corrections or comments - brandon_matley@yahoo.com



Listen to the track for the timing and the rhythm: 


Intro + Verse:

      A       Aadd9       Dadd9      F#m  E

e|--------------------|---3-3-3-------2-------|
B|--------------------|---3-3-3-------2-------|
G|--2--2-2--2---0-0---|---2-2-2-------2---1---|
D|--2--2-2--2---2-2---|---0-0-0-------4---2---|
A|--2--2-2--2---2-2---|---------------4---2---|
E|--------------------|---------------2-------|
    


Chorus:

    A       D       G    D

e|-----------------------------------|
B|-----------------------------------|
G|---------6-6--------------6-6------|
D|--6--6---6-6------5--5----6-6------|
A|--6--6---5-5------5--5----5-5------|
E|--5--5------------3--3-------------|



Verse:

    A       Aadd9       Dadd9      F#m  E

e|--------------------|---3-3-3-------2-------|
B|--------------------|---3-3-3-------2-------|
G|--2--2-2--2---0-0---|---2-2-2-------2---1---|
D|--2--2-2--2---2-2---|---0-0-0-------4---2---|
A|--2--2-2--2---2-2---|---------------4---2---|
E|--------------------|---------------2-------|


Chorus:
[ Tab from: http://www.guitartabs.cc/tabs/p/prime_circle/my_inspiration_tab.html ]
e|-----------------------------------|
B|-----------------------------------|
G|---------6-6--------------6-6------|
D|--6--6---6-6------5--5----6-6------|
A|--6--6---5-5------5--5----5-5------|
E|--5--5------------3--3-------------|


Solo:


e|---------------------------------------------------------|
B|---------------------------------------------------------|
G|---------------------------------------------------------|
D|---------------------------------------------------------|
A|-0--0-0-3-0-3-0-3-0--------0--0-0-3-0-3-0-3-0------------|
E|---------------------------------------------------------|


e|------------------------------------------------------------------|
B|------------------------------------------------------------------|
G|------------------------------------------------------------------|
D|------------------------------------------------------------------|
A|-0--0-0-5-0-7-0-9-7-5-4h5-4h5-4h5-4h5-4-5-4-2--0--00-3-0-3-(etc)--|
E|------------------------------------------------------------------|


Verse:

    A       Aadd9       Dadd9      F#m  E

e|--------------------|---3-3-3-------2-------|
B|--------------------|---3-3-3-------2-------|
G|--2--2-2--2---0-0---|---2-2-2-------2---1---|
D|--2--2-2--2---2-2---|---0-0-0-------4---2---|
A|--2--2-2--2---2-2---|---------------4---2---|
E|--------------------|---------------2-------|


Chorus:

e|-----------------------------------|
B|-----------------------------------|
G|---------6-6--------------6-6------|
D|--6--6---6-6------5--5----6-6------|
A|--6--6---5-5------5--5----5-5------|
E|--5--5------------3--3-------------|

Comments