Prime Circle - Hello Chords & Tabs

 

Hello Chords & Tabs

Prime Circle Chords & Tabs

Version: 1 Type: Tab 0 ratings
1 star 2 stars 3 stars 4 stars 5 stars
comments

Hello Tab

   
-===================-
Prime Circle - Hello
-===================-

Artist		-	Prime Circle
Song		-	Hello
Tabbed By	-	Clayton Botha
e-Mail		-	theno69@hotmail.com
Tuning		-	Standard
Notes		-	Awesome song, as is each one on the CD!


 -=Intro=- (Palm-Muted)           |Last Time Only||
e||-------------------------------|--------------||
B||-------------------------------|--------------||
G||-7-7-7-7-7-7-7-7---------7-7-7-|--------------||: Guitar-2 plays
D||-7-7-7-7-7-7-7-7-5-5-5-5-7-7-7-|--------------||: D - A - G - A
A||-5-5-5-5-4-4-4-4-5-5-5-5-4-4-4-|-4h5p4-0------||
E||-----------------3-3-3-3-------|---------5-3--||


 -=Lead Fill=- (Wah-Effect)
e||----------------------||------------------------||
B||----------------------||------------------------||
G||----------------------||------------------------||
D||-4/7~~5~~4h5p4~~2~~0~~||-4/7~~5~~4h5p4-0~~2~~0~~||
A||----------------------||------------------------||
E||----------------------||------------------------||


 -=Verse=- (Palm-Muted)
e||---------------------------------||
B||---------------------------------||
G||-7-7-7-7-------------------------||
D||-7-7-7-7-7-7-7-7-5-5-5-5-7-7-7-7-||
A||-5-5-5-5-7-7-7-7-5-5-5-5-7-7-7-7-||
E||---------5-5-5-5-3-3-3-3-5-5-5-5-||


 -=Bridge=- (Heavy-Crunch)
e||---------------------------------||
B||---------------------------------||
G||-7-7-----------------------------||
D||-7-7-----7-7-----5-5-5-5-7-7-7-7-||
A||-5-5-----7-7-----5-5-5-5-7-7-7-7-||
E||---------5-5-----3-3-3-3-5-5-5-5-||


 -=Chorus=- (Distorted)
e||---------------------------------||
B||---------------------------------||
G||-7-7-7-7-------------------------||
D||-7-7-7-7-7-7-7-7-9-9-9-9-5-5-5-5-||
A||-5-5-5-5-7-7-7-7-9-9-9-9-5-5-5-5-||
E||---------5-5-5-5-7-7-7-7-3-3-3-3-||


 -=Interlude=- (Palm-Muted)
e||---------------------------------||
B||---------------------------------||
G||-7-7-7-7---------4-4-4-4---------||
D||-7-7-7-7-7-7-7-7-4-4-4-4-5-5-5-5-||
A||-5-5-5-5-7-7-7-7-2-2-2-2-5-5-5-5-||
E||---------5-5-5-5---------3-3-3-3-||

[ Tab from: http://www.guitartabs.cc/tabs/p/prime_circle/hello_tab.html ]
 -=Last-Chorus=- (Distorted)
e||-------------------------------x-||
B||-------------------------------3-||
G||-7-7-7-7-----------------------2-||
D||-7-7-7-7-7-7-7-7-9-9-9-9-5~~~~-0-||
A||-5-5-5-5-7-7-7-7-9-9-9-9-5~~~~-0-||
E||---------5-5-5-5-7-7-7-7-3~~~~-x-||


-=Lyrics=-

 Verse-1
 -=====-
 Release myself from holding back
 I realize now my world's not flat
 An open mind an open chord
 Open runways open the doors, today

Verse-2
-=====-
 So much to do, so little time
 I think this just might blow my mind
 I Hope there's nothing overlooked
 Cause I just wanna shout out loud - oh

Bridge
-====-
 Hello, Hello (2x)
 To the world, I can see
 ohh I'm in a spin (2x)
 I'm letting go, once again

Chorus
-====-
	Now that I have been sat down
	I don't ever wanna leave
	These things I never thought I'd see
	Mean so very much to me

Verse-3
-=====-
 There's more to say, more to do
 Just give me time, I'll get back to you
 Hope there's nothing overlooked
 Cause I just wanna shout out loud - oh

Bridge
-====-
 Hello, Hello (2x)
 To the world, I can see
 ohh I'm in a spin (2x)
 I'm letting go, once again

Chorus (Extended)
-===============-
	Now that I have been sat down
	I don't ever wanna leave
	These things I never thought I'd see
	Mean so very much
	And I wont waste another day
	Holding back on everything I say
	You see I've moved on now
	And I'm happier

Interlude
-=======-
 Something's got to change (got to change)
 Something's got to go my way (go my way)
 And I can see it's all, just a dream
 You see I'm inside out
 I'm looking up but falling down
 And I can see in you
 So come on over - come and see oh

Bridge
-====-
 Hello, Hello (2x)
 To the world, I can see
 ohh I'm in a spin (2x)
 I'm letting go, once again yeah

Chorus
-====-
	Now that I have been sat down
	I don't ever wanna leave
	These things I never thought I'd see
	Ohh Hello, Hello, Hello

-====================================================================-
 Thanks for viewing my tab! Any questions, comments or death treats??
 I'm open to all corrections so please e-mail me: theno69@hotmail.com
-====================================================================-
Comments