Primal Scream - Motorhead Chords & Tabs

 

Motorhead Chords & Tabs

Primal Scream Chords & Tabs

Version: 1 Type: Bass Tab 0 ratings
1 star 2 stars 3 stars 4 stars 5 stars
comments

Motorhead Bass Tab

   
Song: Motorhead
Band: Primal Scream
Album: Vanishing Point
Bassist: Mani
Comments: These are the three main riffs used through out
the song. They're not very hard to piece together so I'm
not going to organize them. This is a wonderful disco/punk/techno
tune with a cowbell!

[ Tab from: http://www.guitartabs.cc/tabs/p/primal_scream/motorhead_btab.html ]
Riff I:
G*----------------*----------------*
D*----------------*----------------*
A*----------------*----------------*
E*3-3-3-1-3-3-3-1-*3-3-3-1-3-3-1-2-*


Riff II:
G*----------------*----------------*
D*1-1-1-0-1-1-0---*----------------*
A*--------------3-*3-3-3-1-3-3-1-3-*
E*----------------*----------------*


Riff III:
G*----------------*
D*----------------*
A*5-5-5-5-5-5-5-5-*
E*----------------*


Tabbed by Steven Snider
Peavy_BZ_100@hotmail.com

Comments