Pridebowl - The Soft Song Chords & Tabs

 

The Soft Song Chords & Tabs

Pridebowl Chords & Tabs

Version: 1 Type: Bass Tab 0 ratings
1 star 2 stars 3 stars 4 stars 5 stars
comments

The Soft Song Bass Tab

------------------------------------------------------------------
			     SOFT SONG - Pridebowl
------------------------------------------------------------------

By: Dave Wilson (nougeypooge@hotmail.com for requests)

Intro
G|---------------------------------------------------------------|
D|---------------------------------------------------------------|
A|--------------10-10-10-10-10-10--5-5-5-5-5-5---7-9-10----------|
E|-7-7-7-7-7-7---------------------------------------------------|
[ Tab from: http://www.guitartabs.cc/tabs/p/pridebowl/the_soft_song_btab.html ]
G|---------------------------------------------------------------|
D|---------------------------------------------------------------|
A|--------------10-10-10-10-10-10--12-12-12-12-12-12-------------|
E|-7-7-7-7-7-7----------------------------------------5-5-5-5-5-5|

G|---------------------------------------------------------------|
D|---------------------------------------------------------------|
A|--------------10-10-10-10-10-10--5-5-5-5-5-5--3-2-3-4-5--------|
E|-7-7-7-7-7-7---------------------------------------------------|

Rest of the song
G|---------------------------------------------------------------|
D|---------------------------------------------------------------|
A|--------------10-10-10-10-10-10--5-5-5-5-5-5--7-9-10-----------|
E|-7-7-7-7-7-7---------------------------------------------------|

Comments