Pride And Glory - Toen The Line Chords & Tabs

 

Toen The Line Chords & Tabs

Pride And Glory Chords & Tabs

Version: 1 Type: Tab 0 ratings
1 star 2 stars 3 stars 4 stars 5 stars
comments

Toen The Line Tab

Band - Pride And Glory
Song - Toe'n The Line

Tuning: standard


e|------------|
B|------------|
G|--------5-7-|
D|--------5-7-|
A|------0-3-5-|
E|------0-----|

e|----------------------|-------------------------|-----------------------|-------------------||
B|----------------------|-------------------------|-----------------------|-------------------||
G|----------------------|-------------------------|-----------------------|-------------------||
D|----------------------|-------------------------|-----------------------|-------------------|| x4
A|--0-5s7-5-7s5-3-5s7-5-|-7s5-3-5-3-5b6r(5)p3-5-0-|-(0)-0-5s7-5-7s5-3-5-3-|-5s6-6-6-6--3-0----||
E|--0-5s7---7s5-3-5s7---|-7s5-3-5-3-5b6r(5)p3-5-0-|-(0)-0-5s7---7s5-3-5-3-|-5s6-6-6-6--3-0----||

e|----------------|
B|----------------|
G|--------------5-|
D|----------------|
A|-5s6-6-6-6--0---|
E|-5s6-6-6-6--0---|

e|----------------|----------------|---------------|-------------------|
B|----------------|----------------|---------------|-------------------|
G|-(5)----------5-|-(5)------------|---------------|-----------------5-|
D|----------------|--------------4s|-5--5-5-5-5--4-|-(4)---------------| x2
A|------0--0--0---|------0--0--0-2s|-3--3-3-3-3--2-|-(2)-3-5-3-5-3-0---|
E|------0--0--0---|------0--0--0---|---------------|-----3-5-3-5-3-0---|
 pm      .  .  .          .  .  .

e|-----------------|------------------|------------------|---------------|-------------------|
B|-----------------|-----3-------3----|-----3-------3----|---------------|-------------------|
G|-----------------|-------5-0-5------|-------5-0-5------|---------------|-----------------5-|
D|-4---------------|------------------|----------------4s|-5--5-5-5-5--4-|-(4)---------------|
A|-2-3-5-3-5-3-0-0-|-(0)------------0-|-(0)------------2s|-3--3-3-3-3--2-|-(2)-3-5-3-5-3-0---|
E|---3-5-3-5-3-0-0-|-(0)------------0-|-(0)--------------|---------------|-----3-5-3-5-3-0---|

e|----------------|----------------|---------------|-------------------|
B|----------------|----------------|---------------|-------------------|
G|-(5)----------5-|-(5)------------|---------------|-------------------|
D|----------------|--------------4s|-5--5-5-5-5--4-|-(4)---------------|
A|------0--0--0---|------0--0--0-2s|-3--3-3-3-3--2-|-(2)-3-5-3-5-3-0-2-|
E|------0--0--0---|------0--0--0---|---------------|-----3-5-3-5-3-0-2-|
 pm     .  .  .          .  .  .

e|--------------------|    |--------------------|------------------|---------------|
B|-----3-5--3tr5------|    |-----3-5--3tr5------|------------------|---------------|
G|--------------------|    |--------------------|------------------|---------------|
D|--------------------| x5 |--------------------|------------------|------------2--|
A|-(2)------------0-2-|    |-(2)------------0-3-|-(3)--3-3-3-3-3-5-|-5--5--5--5-0--|
E|-(2)------------0-2-|    |-(2)------------0-3-|-(3)--3-3-3-3-3-5-|-5--5--5--5----|

e|-------------------|-------------------------|-------------------|
B|-------------------|-------------------------|-------------------|
G|-------------------|---------2-4b6r(4)p2-----|-------------------|
D|-(2)-2-4-2-5-2-4-2-|-(2)-2-4-------------4-2-|-(2)-2-4-2-5-2-4-2-|
A|-(0)-0-0-0-0-0-0-0-|-(0)-------------------0-|-(0)-0-0-0-0-0-0-0-|
E|-------------------|-------------------------|-------------------|


Chorus:
e|--------------|    |--------------|
B|--------------|    |--------------|
G|--------------|    |--------------|
D|---4--4-3--2--| x4 |--------------| x4
A|---5--5-4--3--|    |---5--5-4--3--|
E|-0------------|    |-5-5--5-5--5--|

e|------------------|------------------|---------------|
B|------------------|------------------|---------------|
G|------------------|------------------|-----------5-7-|
D|------------------|------------------|--0--------5-7-|
A|---7-9-7-10-7-9-5-|-(5)-5-7--5-3-----|--0------0-3-5-|
E|-7-7-7-7--7-7-7-5-|-(5)-5-5--5-3-----|--0------0-----|



 (After the 2nd Chorus)
e|--------------------------------|-----------------------|--------------------------------|
B|--------------------------------|-----------------------|--------------------------------|
G|------0-----0-----0-------------|-----0-----0-----0-----|-----0-----0-----0--------------|
D|----0-----0-----0---------------|---0-----0-----0-------|---0-----0-----0----------------|
A|--0-----3-----5-----5b6r(5)-3-5-|-0-----3-----5-----5-3-|-0-----3-----5-----5b6r(5)-3-5--|
E|--0-----3-----5-----5b6r(5)-3-5-|-0-----3-----5-----5-3-|-0-----3-----5-----5b6r(5)-3-5--|


e|--------------------------|--------------------------------|
B|--------------------------|--------------------------------|
G|-----0-----0--------0-----|-----0-----0-----0--------------|
D|---0-----0--------0-------|---0-----0-----0----------------|
A|-0-----3-----5--------5-3-|-2-----5-----7-----7b8r(7)-5-7--|
E|-0-----3-----5--------5-3-|-2-----5-----7-----7b8r(7)-5-7--|
 |                                                           |
 |                                                           |
e|--------------------------|--------------------------------|
B|--------------------------|--------------------------------|
G|--------------------------|--------------------------------|
D|-4-----7-----9b10-----9-7-|--------------------------------|
A|--------------------------|--------------------------------|
E|--------------------------|--------------------------------|


e|----------------------------|-------------------------------|
B|----------------------------|-------------------------------|
G|-----0-----0---------0------|-----0-----0-----0-------------|
D|---0-----0---------0--------|---0-----0-----0---------------|
A|-2-----5------7---------7-5-|-0-----3-----5-----5b6r(5)-3-5-|
E|-2-----5------7---------7-5-|-0-----3-----5-----5b6r(5)-3-5-|
 |                                                            |
 |                                                            |
e|----------------------------|-------------------------------|
B|----------------------------|-------------------------------|
G|----------------------------|-------------------------------|
D|-6-----9-----11b12-----11-9-|-------------------------------|
A|----------------------------|-------------------------------|
E|----------------------------|-------------------------------|


e|---------------------------------|-----|
B|---------------------------------|-----|
G|-----0-----0--------0------------|-----|
D|---0-----0--------0--------------|--0--|
A|-0-----3-----5--------5------3---|--0--|
E|-0-----3-----5--------5------3---|--0--|
 |                                       |
 |                                       |
e|---------------------------------|-----|
B|---------------------------------|-----|
G|---------------------------------|-----|
D|-4-----7-----9b10-----9b10-9---7-|--0--|
A|---------------------------------|--0--|
E|---------------------------------|--0--|

e|--------------|---------------------|--------------|--------------------|
B|--------------|---------------------|--------------|--------------------|
G|--------------|------------------/7-|-5------------|--------------------|
D|---4--4-3--2--|---4-----------------|---4--4-3--2--|-5s3--(3)-(3)--(3)--|
A|-0-5--5-4--3--|-0-5--------3h5p3----|---5--5-4--3--|-------5---4----3---|
E|-0------------|-0----0-3h5----------|--------------|--------------------|

e|--------------------|-----------------|--------------|--------------|--------------|
B|--------------------|-----------------|--------------|--------------|--------------|
G|--------------------|-------5---5---5-|--------------|--------------|--------------|
D|-3s5--(5)-(5)--(5)--|-0-3s7---6---5-5-|---4--4-3--2--|---4--4-3--2--|---4--4-3--2--|
A|-------5---4----3---|-0---------------|-0-5--5-4--3--|-0-5--5-4--3--|-0-5--5-4--3--|
E|--------------------|-0---------------|-0------------|-0------------|-0------------|

e|------------------|--------------|---------------|--------------|----------------|
B|------------------|--------------|---------------|--------------|----------------|
G|------------------|--------------|---------------|--------------|----------------|
D|---4--------------|---4--4-3--2--|---4--4-3--2---|---4--4-3--2--|---4------------|
A|-0-5--------3-----|---5--5-4--3--|-0-5--5-4--3---|-0-5--5-4--3--|-0-5--0-0-0-0-0-|
E|-0----0-3-5---5-0-|-5------------|-0-------------|-0------------|-0----0-0-0-0-0-|



Solo:
e|-10------10------------------------------------------------------------------10----------------|
B|-13b15---13b15----------------------------------13-15-13-10------------------------------------|
G|-----------------------10-----12----10-11s14-14-------------12b14---(12)pb14----12r(12)p10--12-|
D|-----------------10-12-----12----12------------------------------------------------------------|
A|-----------------------------------------------------------------------------------------------|
E|-----------------------------------------------------------------------------------------------|

e|-10-----------10-------(10)----------10--------13b15------13------------------------------|
B|-13b15--------13b15----(13)pb15---------13-10---------------------------------------------|
G|---------------------------------------------------------------------10----12----10h11p10-|
D|---------------------------------------------------------------10h12----12----12----------|
A|------------------------------------------------------------------------------------------|
E|------------------------------------------------------------------------------------------|
[ Tab from: http://www.guitartabs.cc/tabs/p/pride_and_glory/toen_the_line_tab.html ]
e|------------------13------------------------------13----13----------------------------10-|
B|-----------------------------------------------------------------------------------------|
G|---12----10h12s14----14-\12--10----12-10-10h12s14----14----14s12----12----10-------------|
D|12----12------------------------12-------------------------------12----12----12-10h12----|
A|-----------------------------------------------------------------------------------------|
E|-----------------------------------------------------------------------------------------|

e|-------------------------------------------------------------------------|
B|------13-------13----12---------------------12b13--12b13r(12)p10---------|
G|------------------------13p12p10--12-10--------------------------12-10---|
D|12s14----14s12----12-----------------------------------------------------|
A|-------------------------------------------------------------------------|
E|-------------------------------------------------------------------------|


e|--------------------------------13b15----(13)pb15---13b17---(13)r---(13)----|
B|-12b13--12b13r(12)p10-13b15-------------------------------------------------|
G|----------------------------------------------------------------------------|
D|----------------------------------------------------------------------------|
A|----------------------------------------------------------------------------|
E|----------------------------------------------------------------------------|

e|------------------------------------------------------------------------12-------15-12----12-17-15-|
B|-0-------(0)------------15b17-------------------------------15-12----------15-12-------15----------|
G|-2b4-----(2)r---(2)----------------------------12--15-14-12-------15-14----------------------------|
D|--------------------------------x\-------12-14-----------------------------------------------------|
A|-----------------------------------12-14-----------------------------------------------------------|
E|---------------------------------------------------------------------------------------------------|

e|-12----------------------------------17-14--------------------------------17-14-------------------|
B|----15-12-12-12-15-12-12-------/17---------17-14-------17-14--------------------17-14-------17----|
G|-------------------------14----------------------16-14-------16-14--------------------16-14-------|
D|-------------------------------------------------------------------16-14--------------------------|
A|--------------------------------------------------------------------------------------------------|
E|--------------------------------------------------------------------------------------------------|

e|-17-14-------------------------------------------|------|
B|-------17-14-------17-14-------------------17-14-|------|
G|-------------16-14-------16-14-------16-14-------|--16--|
D|-------------------------------16-14-------------|------|
A|-------------------------------------------------|------|
E|-------------------------------------------------|------|

Chorus:
e|----------------|    |----------------|
B|----------------|    |----------------|
G|----------------|    |----------------|
D|----4--4-3--2---| x4 |----------------| x4
A|----5--5-4--3---|    |----5--5-4--3---|
E|--0-------------|    |--5-5--5-5--5---|

e|-------------------|-------------------|--------------------|-------------------|
B|-------------------|-------------------|--------------------|-------------------|
G|-------------------|-------------------|--------------------|-------------------|
D|-------------------|-------------------|--------------------|-------------------|
A|----7-9-7-10-7-9-5-|-(5)-5-7-5-8-5-7-7-|-(7)-7-9-7-10-7-9-5-|-(5)-5-7-5-8-5-7-7-|
E|--7-7-7-7--7-7-7-5-|-(5)-5-5-5-5-5-5-7-|-(7)-7-7-7--7-7-7-5-|-(5)-5-5-5-5-5-5-7-|

e|------------------|--------------|-----|
B|------------------|--------------|-----|
G|------------------|--------------|-----|
D|------------------|--------------|--0--|
A|---7-9-7-10-7-9-5-|-5-5-7--5-3---|--0--|
E|-7-7-7-7--7-7-7-5-|-5-5-5--5-3---|--0--|

Outro:
e|--------------------------|--------------------------|--------------------------|-------------------|
B|--------------------------|--------------------------|--------------------------|-------------------|
G|--------------------------|----------------------4-5-|--------------------------|-------------------|
D|---------3--------5---3s4-|---------3--------5---3s4-|---------3--------5---3s4-|---------3---------|
A|-----3-5---3-5--5---5-----|-----3-5---3-5--5---5-----|-----3-5---3-5--5---5-----|-----3-5---3-5-----|
E|-5-7----------------------|-5-7----------------------|-5-7----------------------|-5-7---------------|

e|--------------------------|--------------------------|----------------------------|
B|--------------------------|--------------------------|----------------------------|
G|--------------------------|----------------------4-5-|----------------------------|
D|---------3--------5---3s4-|---------3--------5---3s4-|---------3--------5---3s4---|
A|-----3-5---3-5--5---5-----|-----3-5---3-5--5---5-----|-----3-5---3-5--5---5-------|
E|-5-7----------------------|-5-7----------------------|-5-7------------------------|

e|--------------------------|------------------|--------------------------|------------------------|
B|--------------------------|------------------|--------------------------|------------------6-6---|
G|--------------------------|-----0------0-----|--------------------------|------------------5-5---|
D|---------3--------5---3s4-|---0------0-------|---------3--------5---3s4-|---------3--------4-4---|
A|-----3-5---3-5--5---5-----|-7-----5------5-3-|-----3-5---3-5--5---5-----|-----3-5---3-5--5-5-5---|
E|-5-7----------------------|-7-----5------5-3-|-5-7----------------------|-5-7--------------------|


e|--------------------------|
B|--------------------------|
G|----------------------x-x-|
D|---------3--------5---x-x-|
A|-----3-5---3-5--5---5-x-x-|
E|-5-7----------------------|

Solo:
e|------------------------|-------------------------|-----------10-------13b15----13-|
B|-13--------13-----13----|-13----------------12b13-|-13b15--------13-10-------------|
G|-12b14-----12b14--12b13-|-12b14r(12)-10-----------|--------------------------------|
D|------------------------|---------------12--------|--------------------------------|
A|------------------------|-------------------------|--------------------------------|
E|------------------------|-------------------------|--------------------------------|

e|--10-13-10h13p10----10-------10--|-10-----------------------10--------------|
B|-----------------13----13b15-----|----13-10------13-10---------13-10--------|
G|---------------------------------|----------12---------12------------12-----|
D|---------------------------------|------------------------------------------|
A|---------------------------------|------------------------------------------|
E|---------------------------------|------------------------------------------|

e|--------------------------------------------|-------------------------------------------|
B|-12b13--12b13r(12)p10-----10-13-------------|-10-----12b13r12-12b13r12-12b13-12-12------|
G|----------------------12--------12pb13r(12)-|-10-----12b13r12-12b13r12-12b13r12-12---15-|
D|--------------------------------------------|----12-------------------------------------|
A|--------------------------------------------|-------------------------------------------|
E|--------------------------------------------|-------------------------------------------|

e|-15------------|-15------------------10-|
B|-18b20---------|-18pb21r-18---13b15-----|
G|---------------|------------------------|
D|---------------|------------------------|
A|---------------|------------------------|
E|---------------|------------------------|

e|-10----------------------------------------10-13-10-10----------------10--------|
B|----13-10--------10---------10-13-10----10-------------13pb15r(13)b15----13-10--|
G|----------12b14-----12r(12)----------12-----------------------------------------|
D|--------------------------------------------------------------------------------|
A|--------------------------------------------------------------------------------|
E|--------------------------------------------------------------------------------|

e|-------10-------------10-------------10-------------10-------------10-------------x-x-x-x-x-x-|
B|----------13-10----------13-10----------13-10----------13-10-13b15----13-10-13b15-x-x-x-x-x-x-|
G|-12b13----------12b13----------12b13----------12b13-------------------------------x-x-x-x-x-x-|
D|----------------------------------------------------------------------------------------------|
A|----------------------------------------------------------------------------------------------|
E|----------------------------------------------------------------------------------------------|

e|-12--------------------------10--------|
B|-15b17----15pb18r(15)--13b15----13p10--|
G|---------------------------------------|
D|---------------------------------------|
A|---------------------------------------|
E|---------------------------------------|

e|-------10-------|
B|----------13-10-|
G|-12b13----------|
D|----------------| x14
A|----------------|
E|----------------|

e|-----------------------------------------------|---------15-16-17-19-------------------------------|
B|-17b19--17b19r(17)p15----15-----15-17b19-17b19-|---17b19-------------16-17b19r(17)-15----15-----15-|
G|----------------------16-----16----------------|--------------------------------------16-----16----|
D|-----------------------------------------------|---------------------------------------------------|
A|-----------------------------------------------|---------------------------------------------------|
E|-----------------------------------------------|---------------------------------------------------|

e|-------------------------------------------------|-------------------------------------------------|
B|-17b19r(17)p15----17b19r(17)p15----17b19r(17)p15-|----17b19r(17)-15----17b19r(17)-15----x-x-17b19--|
G|---------------16---------------16---------------|-16---------------16---------------16-x-x--------|
D|-------------------------------------------------|-------------------------------------------------|
A|-------------------------------------------------|-------------------------------------------------|
E|-------------------------------------------------|-------------------------------------------------|
Comments