Pride And Glory - Machine Gun Man Chords & Tabs

 

Machine Gun Man Chords & Tabs

Pride And Glory Chords & Tabs

Version: 1 Type: Tab 0 ratings
1 star 2 stars 3 stars 4 stars 5 stars
comments

Machine Gun Man Tab

Band - Pride And Glory
Song - Machine Gun Man

Tuning: standard
Key:
/ - slide up
\ - slide down
h - hammer-on
p - pull-off

Intro:
e||-----------------------------------------------------------------------------0---|
B||------------------12----------------------------------------------------------0--|
G||-----------9-11/13--13\11--------------------------------------------0h1-0h1---1-|
D||------9h11-------------------7--7---------------7--7-------------7-7-2-----------|
A||-9h11-0----------------------9--7------7h9p7----9--7------7h9p7--9-9-2-----------|
E||-0------------------------10----9--7h9-------10----9--7h9------------0-----------|

e|------------------------------12-----------------------------------------------------------------------||
B|-------------------12-----------12----------12/14\12--10-9h10--12--------------------------------------||
G|-----------9-11/13----13\11-9------11b-9----11/13\11--9------------11b-9------9------9---9-----9-------||
D|------9h11-------------------------------11------------------------------9h11---9h11-----9h11--9-------||
A|-9h11-0-------------------------------------------------------------------------------------------9h11-||
E|-0------------------------------------------------------------------------------------------------0----||
                                                                              
Verse:
e||------------------------------------------------------------------------------------------------0------|
B||--------------------------------9-----------------------------------------------------------------0----|
G||-------------9-11/13--11---11---9--------7-----------------------7---------------------0h1--0h1-----1--|
D||--------9h11-----------------------------7---7-------------------7---7-------7/8--7----2---------------|
A||--9h11--0------------------------------9-----7-----------------9-9---7-------9/10-9----2---------------|
E||--0---------------------------------10-------9------7h9----10--------9-----------------0---------------|

e|--------------------------------------------------------------------------------------------------------|
B|-----------------------------9--------------------------------------------------------------------------|
G|-------------9-11/13-11---11-9--------7---------------------------------7--------------------------0h1--|
D|--------9h11--------------------------7--7------------------------------7---7--------7/8--7--------2----|
A|--9h11--0---------------------------9----7---------------------------9--9---7--------9/10-9--------2----|
E|--0------------------------------10------9-----------7h9----------10--------9----------------------0----|
[ Tab from: http://www.guitartabs.cc/tabs/p/pride_and_glory/machine_gun_man_tab.html ]
e|-------------------------------------------------------------------------|
B|-------------------------------------------------------------------------|
G|------2-----2----2-------------2-----------------2------------------2----|
D|------2-----2----2-------------2-----------------2------------------2----|
A|------0-----0----0-------------0-----------------0------------------0----|
E|-----------------------4----4------4---3----3-------3-----2----2-------2-|

e|--------------------------------------------------------------------------------------------------------|
B|------------------------------------------------------------------------------------2-----2h3p2---------|
G|--2-----2----2-------------2--------4-------4--------4----2---2----2----------------2-----2h4p2---------|
D|--2-----2----2-------------2--------4---2/4------2/4------2---2-----------2---------2-------------2-----|
A|--0-----0----0-------------0--------2---------------------0---0-----------2---------0-------------2-----|
E|------------------4----4------4-------------------------------------------0--2-4------------------0-2-4-|

e|-------------------------------------------------------------|
B|----2--------------------------------------------------------|
G|----2--------2----------------4------4----7-----2------------|
D|----2-------------2-----------4--2/4------7-----2------------|
A|----0-------------2-----------2-----------5-----0------------|
E|------------------0---2-4-----------------------------3------|

e|-------------------------------------------------------------------------------------------------------||
B|--------------2------------------2-------------------------4----------------------------2------/-------||
G|--------------0------------------0----------------4------4-4--------7------2------------0----------\---||
D|--------------2------------------2----------------4--2/4------------7------2------2-----2--------------||
A|--------------0------------------0--x\-----2------2-----------------5------0------2-----0--------------||
E|---0---2---4--------0---2---4--------------0--------------------------------------0--------------------||

e||------------------------------12--9----9---------------------------------------------------------------|
B||--------------------12--------------12---12-9-12-9----9-10p9---9----------------9-9h10--12-------12/14-|
G||-------------9-11/13--13\11-9----------------------12--------11b-9---------9-11------------12b-9-------|
D||-------9h11--------------------------------------------------------11-9-11-----------------------------|
A||--9h11-0-----------------------------------------------------------------------------------------------|
E||--0----------------------------------------------------------------------------------------------------|

e|-12----12---------||
B|----14----12--/12-||
G|--------------/13-||
D|------------------||
A|------------------||
E|------------------||
					      
Chorus:
e||-------------------------------------------------------------------||
B||------------------------------4------------------------------------||
G||----------4---4--4---4------4-4-----------2------------------------||
D||----------4---4--4---4--2/4---------------2-----------------2------||
A||----------2---2--0h2-2--------------------0-----------------2------||
E||--------------------------------------------------3b--------0------||
Comments