Pride And Glory - Harvester Of Pain Chords & Tabs

 

Harvester Of Pain Chords & Tabs

Pride And Glory Chords & Tabs

Version: 1 Type: Tab 0 ratings
1 star 2 stars 3 stars 4 stars 5 stars
comments

Harvester Of Pain Tab

#----------------------------------PLEASE NOTE--------------------------------#
#This file is the author's own work and represents their interpretation of the#
#song. You may only use this file for private study, scholarship, or research.#
#-----------------------------------------------------------------------------#
#-- File created with Instab - http://www.pconline.com/~smcarey/instab.html --#
#-----------------------------------------------------------------------------#

Author/Artist: Zakk Wylde / Pride And Glory
Title: Harvester Of Pain
Album: Pride And Glory
Transcribed by: James Rae
Email: chimma@pathcom.com

For latest version, check http://www.pathcom.com/~chimma

-the solo isn't exact, but the part with the wah you can just wing it.
-comments and corrections are always welcom

Standard Tuning [E]

Legend

h - hammer
p - pull off
b - bend up
r - release bend
/ - slide up
\ - slide down
v - vibrato
* - trill
t - tap
x - mute/rake
^ - harmonic
. - palm mute
# - strum chord
! - pinch harmonic


 Intro (x3)

------------------------------------------------------------------------------
------------------------------------------------------------------------------
----2-2-----2----2------------------------------------------------------------
----2-2-----2----2------------------------------------------------------------
----0-0-----0----0------------------------------------------------------------
--3-------3----3----3vv-------------------------------------------------------
  .       .    .    !


 Intro (last time)

------------------------------------------------------------------------------
------------------------------------------------------------------------------
------2-2-----2----2----------------------------------------------------------
------2-2-----2----2----------------------------------------------------------
------0-0-----0----0----------------------------------------------------------
--3-3-------3----3----3b5-----------------------------------------------------
  . .       .    .    slow


 Main riff

-----3----3---3----------------------3----3---3-------------------------------
-----2----2---2----------------------2----2---2-------------------------------
--2----2----2---------------------2----2----2---------------------------------
--2----2----2---------------------2----2----2---------------------------------
--0----0----0---------------------0----0----0---------------------------------
-----------------0-3-0-2-0-----------------------0-3-0-2-0--------------------
                 . . . . .                       . . . . .

-----0--------3----------------------3----3---3--------------------------------
-------1--------0--------------------2----2---2--------------------------------
--0------0--------0---------------2----2----2----------------------------------
--2---------0---------------------2----2----2----------------------------------
--3---------2---------------------0----0----0----------------------------------
------------3------------------------------------0-3-0-2-0---------------------
                            . . . . .


 Prechorus

--------0-------0-------0-------0---------------------------------------------
--------------3---------------3---1-------------------------------------------
------0-----2---------0-----2-------0----9--7--5--9--7--5---------------------
----2-----0---------2-----0-----------2--9--7--5--9--7--5---------------------
--3---------------3----------------------7--5--3--7--5--3---------------------
------------------------------------------------------------------------------


 Chorus
[ Tab from: http://www.guitartabs.cc/tabs/p/pride_and_glory/harvester_of_pain_tab.html ]
-----0---------3-------2--5---------------------------------------------------
--1----1-----1---1-----3----3-------------------------------------------------
--2------2---0-----0---2------2--7--5--7--5--2--------------------------------
--2----------2---------0---------7--5--7--5--2--------------------------------
--0----------3-------------------5--3--5--3--0--------------------------------
------------------------------------------------------------------------------


 Pre-Solo

------0---------3-------0---------3-------0---------3-----0--1--3-------------
------1------1--0-------1------1--0-------1------1--0-----1--1--0-------------
------2------2--0-------2------2--0-------2------2--0-----2--2--0-------------
----2--------3--0-----2--------3--0-----2--------3--0-----2--3--0-------------
--0--------3----2---0--------3----2---0--------3----2-----0--3--2-------------
---------1------3----------1------3----------1------3--------1--3-------------
  clean                                                   distortion


 Solo

------------------------------------------------------------------------------
--5---------------------------------------------------------------------------
--7b9---------7-5-4-------5---------5---------5---------5---------------------
------lots------------5h7---7---5h7---7---5/7---7---5h7---7-------------------
------------------------------------------------------------------------------
------------------------------------------------------------------------------


-----------------------------------5h8---------5-8----------------------------
--5-----------------------8b10---------8-5-----5-8----------------------------
--7b9--------5-5-7-5---------------------------5-7----------------------------
--------------------------big------------------5-7----------------------------
--------------------------wah------------------5-7----------------------------
-----------------------------------------------5-8----------------------------
 wah on                                        mess around this scale w/wah

------------------------------------------------------------------------------
------------------------------------------------------------------------------
--17/16/14-14----19-19/17-17-17/16-16-16-16/12-12-----------------------------
------------------------------------------------------------------------------
--15/14/12-12----17-17/15-15-15/14-14-14-14/10-10-----------------------------
------------------------------------------------------------------------------
  wah off


 Last prechous / post solo (extra beefy)

--0--0--0--0--0---------------------------------------------------------------
--1--3--1--3--1---------------------------------------------------------------
--0--2--0--2--0---9--7--5---9-7-5---9--7--5---9-7-5---------------------------
--2--0--2--0--2---9--7--5---9-7-5---9--7--5---9-7-5---------------------------
--3-----3-----3---7--5--3---7-5-3---7--5--3---7-5-3---------------------------
------------------------------------------------------------------------------
  #  #


 Ending arpeggios

----5-------------------------------------------------------------------------
------8---8-----8-------------------------------------------------------------
--------6---6-----6-----------------------------------------------------------
--------------7-----7---------------------------------------------------------
--0---------------------------------------------------------------------------
------------------------------------------------------------------------------

      
 Last chord (let ring)

--0---------------------------------------------------------------------------
--1---------------------------------------------------------------------------
--2---------------------------------------------------------------------------
--2---------------------------------------------------------------------------
--0---------------------------------------------------------------------------
------------------------------------------------------------------------------
Comments