Pride And Glory - Fadin Away Chords & Tabs

 

Fadin Away Chords & Tabs

Pride And Glory Chords & Tabs

Version: 1 Type: Tab 0 ratings
1 star 2 stars 3 stars 4 stars 5 stars
comments

Fadin Away Tab

   
Band - Pride And Glory
Song - Fadin' Away

Tuning: standard

e|-------------------------------------|-------0-----------0-------0-----|
B|---------0-----------0---------------|-----7---7-------7---7-------7---|
G|-----5-----5-----5-----5-------------|---7-------7---7-------7-------7-|
D|---7---7-------7---7---------0-----0-|-0-----------0-----------0-------|
A|-0-----------0-----------3h5---3h5---|---------------------------------|
E|-------------------------------------|---------------------------------|

e|-------0-----------0-------0-----|-------0-----------0---------|-------0------0-|
B|-----7---7-------7---7-------7---|---------0-----------0-------|---------0----0-|
G|---5-------5---5-------5-------5-|---2-------2---2-------2-----|---2-------2--1-|
D|-0-----------0-----------0-------|-----2-----------2-------2---|-----2--------2-|
A|---------------------------------|---------------------------2-|--------------2-|
E|---------------------------------|-0-----------0---------------|-0------------0-|

e|---------0-----------------------|---------0h2-----3h2-----0h2-----|
B|-----1-----1---------1-------1---|-----3-------3-------3-------3---|
G|-------2---------------0-------0-|-------2-------2-------2-------2-|
D|-2-----------------------0h2-----|-0-------------------------------|
A|-0-----------2---3---------------|---------------------------------|
E|---------------------------------|---------------------------------|

Chorus:
e|---------0---------------0-------|-------0-------------0-----------|
B|-----------0---------------0-----|---------1-------1-----1-1---3---|
G|-----2-------2-------1-------1---|-----0-----0-------0-----0---0---|
D|-------3-------3-------2-------2-|---2-----------2---------2---4---| x2
A|---3-------------2---------------|-0-----------0-----------3---5---|
E|-1---------------0---------------|---------------------------------|

e|---0-----0----------------0h2p0-------|---2--------------0-----------------|
B|-----1-----1---3------3-----------3---|-3---3---3----------1---------------|
G|-2-----0-------0--------2-------2---2-|-2--------------------2-------------|
D|-2-----2-------4----0-----------------|-0--------------------------0-----0-|
A|-0-----3-------5----------------------|-------3---2-0----------3h5---3h5---|
E|--------------------------------------|------------------------------------|

____________________________________________________________________________________


e|---2--------------------0-------|
B|-----3---3----------1-----1-----|
G|----------------------2-----2---|
D|-0----------------2-----------2-|
A|-------3---2-0------------------|
E|--------------------------------|
[ Tab from: http://www.guitartabs.cc/tabs/p/pride_and_glory/fadin_away_tab.html ]
Solo::
e|---------------------------------|--------------------------------|
B|-----------------8~~-------------|--------------------------------|
G|-------5-7~~-7/9-----9/7-5-b7-b7-|-7-5-------------5//----x-x-x---|
D|-5-7~~---------------------------|-----7-7-7~~~~~--5//----x-x-x---|
A|---------------------------------|--------------------------------|
E|---------------------------------|--------------------------------|

e|-8p5---5------5-----------5-----------------------------------------|------------------------|
B|-----8---8/10---8p5-----5---8p5---5---------------------------------|------------------------|
G|--------------------b7----------7---9-5-8-5-7p5---7---7p5---7---5h7-|-5----------------------|
D|------------------------------------------------7---------7---7-----|------7-7~~--5~~//------|
A|--------------------------------------------------------------------|------------------------|
E|--------------------------------------------------------------------|------------------------|

e|---------------------10--------------------12-|-17---15----15----15-14~~~~~~~~~~|
B|----b12--10~~--b12------b12--12-10~~-----13---|---------------------------------|
G|--x-----------x------------------------14-----|---------------------------------|
D|-x--------------------------------------------|---------------------------------|
A|----------------------------------------------|---------------------------------|
E|----------------------------------------------|---------------------------------|

e|-12-12-12-10-10-10-8--8--8--12-12-12-10----8/--10-|-8~~~~~~~~~~~~--------------|
B|-13-13-13-12-12-12-10-10-10-13-13-13-12----10/-12-|-10~~~~~~~~~~~--------------|
G|--------------------------------------------------|----------------------------|
D|--------------------------------------------------|----------------------------|
A|--------------------------------------------------|----------------------------|
E|--------------------------------------------------|----------------------------|

_____________________________________________________________________________________________________


e|-------0-------------0------------|---------0-----------0-----------|
B|---------3-------1--------1-------|-------3---------1-------1-------|
G|-----0-----0-------2--------2-----|-----0-----0-------2-------2-----|
D|----------------------------------|---2-----------------------------|
A|-3-----------0----------------0-2-|-3-----------0---------------0-2-|
E|----------------------------------|---------------------------------|

e|-------0-------------0----------|---------0-----------0-----------------------0-----------|
B|---------3-------1-------1------|-----0-----0-----0-----0-----0---------0-----0-----------|
G|-----0-----0-------2---------2--|-------2-----2-----2-----2-----2---1-----2---1-----------|
D|---2----------------------------|---2---------------------------------2-----2-2-----------|
A|-3-----------0------------------|-2-------------------------------2-----------2-----------|
E|--------------------------------|-0-------------0-----------0-----0-----------0-----------|

e|---------------------------------|
B|---------------------------------|
G|---------------------------------|
D|-7-7-7-7-7-7-7-7-7-7-7-7-7-7-7-7-| repeat
A|-0-0-0-0-0-0-0-0-0-0-0-0-0-0-0-0-|
E|---------------------------------|
 pm. . . . . . . . . . . . . . . .
Comments