Prick - Tough Chords & Tabs

 

Tough Chords & Tabs

Prick Chords & Tabs

Version: 2 Type: Bass Tab 0 ratings
1 star 2 stars 3 stars 4 stars 5 stars
comments

Tough Bass Tab

Tough By Prick
==============
TABbed in the BTC style by Bucky LaDieu 
This is just an arrangement.  It's not exact but sounds cool to me
I don't recomend playing and singing.  Playing detracts from your
ability to effictivly scream in this tune.  ;)

                               8      +
+-----------+-------------------+-----+-----+-------------+-------------+
|-----------|*-----------------*|-----|-----|-------------|-------------|
|-----------|*-----------------*|-----|-----|-------------|-------------|
+--x\0-1-2--+---3-3---3---1-2---+--1--+--1--+--3-3---1-2--+--3-3---1-2--+
                                                                                

                   8      +                                       +                
+-------------------+-----+-----+-------------+-------------+-----+-----+
|*-----------------*|-----|-----|-------------|-------------|-----|-----|
|*-----------------*|-----|-----|-------------|-------------|-----|-----|
+---3-3---3---1-2---+--1--+--1--+--3-3---1-2--+--3-3---1-2--+--1--+--1--+



+------------------+-----------------+-----------------+------------------+
|*-----------------|-1-1-1-1-1-1-1-1-|-----------------|-----------------*|
|*-3-3-3-3-3-3-3-3-|-----------------|-1-1-1-1-1-1-1-1-|-3-3-3-3-3-3-3-3-*|
+------------------+-----------------+-----------------+------------------+
[ Tab from: http://www.guitartabs.cc/tabs/p/prick/tough_btab_ver_2.html ]
                   8      +                                         +
+-------------------+-----+-----+--------------+--------------+-----+-----+
|*-----------------*|-----|-----|--------------|--------------|-----|-----|
|*-----------------*|-----|-----|--------------|--------------|-----|-----|
+---3-3---3---1-2---+--1--+--1--+--3-3--3-1-2--+--3-3--3-1-2--+--1--+--1--+

                                                                         3
+------------------+-----------------+-----------------+------------------+
|*-----------------|-1-1-1-1-1-1-1-1-|-----------------|-----------------*|
|*-3-3-3-3-3-3-3-3-|-----------------|-1-1-1-1-1-1-1-1-|-3-3-3-3-3-3-3-3-*|
+------------------+-----------------+-----------------+------------------+

+------------------+-----------+
|*-----------------|-1-1-1-1-R-|  Rest until Kevin starts the long scream...
|*-3-3-3-3-3-3-3-3-|-----------|
+------------------+-----------+

                xUntil end
+----0--------------------+
|*-----0-------3-0---2-3-*|
|*-3---------1-----3-----*|
+--------3-4--------------+


==========================================================================

     __         Created using the Bass Tab Creator
   +|oo|+       by Mario D'Alessio (motcid!marble!dalessio)
   +|oo|+
     ||         NOTES:
     ||
     ||         Capital durations are dotted notes
     ||           (equal to 1.5 times the duration value)
     ||
     ||         +----+                   +----+
  _  ||  _      |*--*+  = MEASURE        |4:--|  = TIME
  \\_||_//      |*--*+    REPEATS        |4:--|    SIGNATURES
   | [] |       +----+                   +----+
   | || |
  /  []  \      + = TIE         ^  = TRIPLET           > = BEND
  \______/      H = HAMMER ON   \  = SLIDE TO FRET     R = Rest
                P = PULL OFF    \X = SLIDE TO NOWHERE  ~ = Trill
Comments