Pretty Boy Floyd - Leather Boyz With Electric Toyz Chords & Tabs

 

Leather Boyz With Electric Toyz Chords & Tabs

Pretty Boy Floyd Chords & Tabs

Version: 1 Type: Tab 1 rating
1 star 2 stars 3 stars 4 stars 5 stars
comments

Leather Boyz With Electric Toyz Tab

   
Leather Boyz with Electric Toyz- Pretty Boy Floyd

standard tuning-(e,a,d,g,b,e)

2^     =bend up
4r     =release bend
10b(12)=bend up to note
~      =vibrato
v      =vibrato with whammy
/\     =whammy
nh     =natural harmonic
ph     =pinched harmonic
x/     =pick slide
h      =hammer on
p      =pull off




drum intro 5.5 seconds

                intro
   ph               (15 seconds all together)
e|------|-------------------------------------|  repear as needed
b|------|-------------------------------------|
g|-2^v--|--6-6-6-6-6-6-6-6--4-6-9-6-4-4-6-----|
d|------|--6-6-6-6-6-6-6-6--4-6-9-6-4-4-6-----|
a|------|--4-4-4-4-4-4-4-4--2-4-7-4-2-2-4-----|
e|---x/-|-------------------------------------|

                 solo intro

e|--------------------------------------------------------------------------|
b|-14-(14)-17-(17)-16-(16)-17-(17)-14-(14)-19-(19)-17-(17)-16-(16)-14-(14)--|
g|-16b(18)-19b(21)-18b(20)-19b(21)-16b(18)-21b(23)-19b(21)-18b(20)-16b(18)--|
d|--------------------------------------------------------------------------|
a|--------------------------------------------------------------------------|
e|--------------------------------------------------------------------------|
   ooh    oooh     ooh      oh     oh      oooh     ooh     oh      oh    


e|----------------------------------------------|
b|----------------------------------------------|
g|-6-----4-6-9-6-4-4-6---66-----4-6-9-6-4-4-6---|
d|-6-----4-6-9-6-4-4-6---66-----4-6-9-6-4-4-6---|
a|-4-----2-4-7-4-2-2-4---44-----2-4-7-4-2-2-4---|
e|----------------------------------------------|
 


e|----------------------------------------------------------------------------------------|
b|----------------------------------------------------------------------------------------|
g|----------------------------------9-6-9-6---------------------------------------9-6-9-6-|
d|----------------------------------9-6-9-6---------------------------------------9-6-9-6-|
a|----------------------------------7-4-7-4---------------------------------------7-4-7-4-|
e|-5p4-5p4-5p4-5p4-5p4-5p4-5p4-5p4-----------5p4-5p4-5p4-5p4-5p4-5p4-5p4-5p4-5p4----------|

                         solo

e|-------------------------------------------------------------------------------------------|
b|--8-(-8)----8-(-8)----8-(-8)---------------------------------------------------------------|
g|-10b(12)-9-10b(12)-9-10b(12)-9-6-6--------------------------------6h9p7p6-6~-7h9p7--7h9p7--|
d|------------------------------------4^-2-4^-2-4^-2-----------6h7h9-----------------9-----9-|
a|---------------------------------------------------4-4--6h7h9------------------------------|
e|-------------------------------------------------------------------------------------------|
[ Tab from: http://www.guitartabs.cc/tabs/p/pretty_boy_floyd/leather_boyz_with_electric_toyz_tab.html ]
e|------------------------------------------------------9-12p9-9-9---------------------------|
b|------------------------------------------9h10h12p10p9------------------------------6h7h9--|
g|-7h9p7-7h9p7------------------9h10h12p10p9------------------------------------6h7h9--------|
d|------9-----9/11--9h10h12p10p9------------------------------------------6h7h9--------------|
a|------------------------------------------------------------------6h7h9--------------------|
e|-------------------------------------------------------------------------------------------|

e|--------------------------------------------------9-9-12p9--9-12p9--9-9-9-12p9--9-12p9--9--|
b|-----------------9h10h12---------9h10h12------------------12------12----------12------12---|
g|---------9h10h12-------------------------9h10h12-----------------------------------------9~|
d|-9h10h12-----------------9h10h12-----------------------------------------------------------|
a|-------------------------------------------------------------------------------------------|
e|-------------------------------------------------------------------------------------------|

e|------------------------------------------------12-14-15-17^v------------------------------|
b|-----------------9h10h12---------9h10h12---------------------------------------------------|
g|---------9h10h12-------------------------9h10h12-------------------------------------------|
d|-9h10h12-----------------9h10h12-----------------------------------------------------------|
a|-------------------------------------------------------------------------------------------|
e|-------------------------------------------------------------------------------------------|

          solo outro

e|---------------------------------|
b|---------------------------------|
g|-4-4-4-4----------4-4-4-4-2------|
d|-4-4-4-4----------4-4-4-4-2------|
a|-2-2-2-2-4---4----2-2-2-2-0------|
e|-----------2---2-----------------|

e|-----------------------------|
b|-------------------2-(2)-----|
g|--9-8-4-6---4-4-6--5b(6)-----|
d|--9-8-4-6---4-4-6------------|
a|--7-6-2-4---2-2-4------------|
e|-----------------------------|

clean guitar...

e|--------0--0--------0--0----------------------------------------
b|---------1--1--------1--1---------------------------------------
g|-6-6-4----0---6-6-4---0----6-6-4-4-0-2-4--6-6-4-4-0-2-4---------
d|-6-6-4--------6-6-4--------6-6-4-4-0-2-4--6-6-4-4-0-2-4---------
a|----------------------------------------------------------------
e|----------------------------------------------------------------

  theres the idea of the song  pretty easy   im unsure of the guitar solo but im only 14 so sorry
haha  i think this is fairly accurate though 
email me or im me on aim for corrections and/or questions...
email-sexualxxoutkast@yahoo.com
aim-sexualxoutkast09


Comments