Prething - Cant Stop Chords & Tabs

 

Cant Stop Chords & Tabs

Prething Chords & Tabs

Version: 1 Type: Bass Tab

Cant Stop Bass Tab

alright this is my first tab, but it sounds all right. i only listened to this a couple 
but its all good


G:-----------------------------------------------------------|
D:-----------------------------------------------------------|  (intro and
A:-22222-22-22222/66666-66-66666-----------------------------|    chorus)
E:------------------------------44444-44-4444444444-44-44444-|
[ Tab from: http://www.guitartabs.cc/tabs/p/prething/cant_stop_btab.html ]
G:---------------------------------------------------|
D:---------------------------------------------------|  (verse)
A:-222222222222/666666666666-------------------------|
E:--------------------------444444444444444444444444-|

G:--------------------------|
D:--------------------------|
A:-22-22-66-66--------------|
E:------------44-44-44-44~~-|
                (let ring)


thats pretty much the whole song, rate it or lemme know if i tabbed anything wrong

http://www.prething.com