Pretenders - Ill Stand By You Chords & Tabs

 

Ill Stand By You Chords & Tabs

Pretenders Chords & Tabs

Version: 1 Type: Tab 0 ratings
1 star 2 stars 3 stars 4 stars 5 stars
comments

Ill Stand By You Tab

The Pretenders
I'LL STAND BY YOU

Intro
|--------------------------------|e
|--------------------------------|B
|-0--0--0--0---0--0--------------|G
|-0--0--0--0---3--3---0--0--0--0-|D
|-3--3--2--2---3--3---2--2--2--2-|A
|---------------------0--0--0--0-|E

Oh, why you look so sad? the tears in your eyes, come on and come to me now...
|--------------------------------------------------------------------|e
|--------------------------------------------------------------------|B
|----------0--2-----2-0------0------0---------------------------0--2-|G
|-0--0-2-3--------0-----3-2------0----3-2-0--3--2------0--0-2-3------|D
|---------------------------------------------------0----------------|A
|--------------------------------------------------------------------|E

let me see you through, 'cause I've seen the dark side too. When the night falls..
|-----------------------------------------------------------------------|e
|-----------------------------------------------------------------------|B
|-2-0------0---------0-----------2-0-0--(0)-------------2-0--(0)--------|G
|-----3-2------0-2-3----3--2-2--------------3--2-0---------------3-2--0-|D
|----------------------------------------------------0------------------|A
|-----------------------------------------------------------------------|E

Nothing you confess could make me love you less.
|----------------------------|e
|----------------------------|B
|-2-0------0------2-0------0-|G
|-----3-2-------------3-2----|D
|--------------0-------------|A
|----------------------------|E

Chorus
I'll stand by you, I'll stand by you, won't let nobody hurt you, I'll stand by you
|------------------------------------------------------------|e
|------------------------------------------------------------|B
|-0--------------2--------------0-2----------------0---------|G
|----3-0--0---0----0-0---0-2--3-----3--(3)-2-(2)------3-0--0-|D
|------------------------------------------------------------|A
|------------------------------------------------------------|E

So, if you're mad, get mad don't hold it all inside Come on and talk to me And...
|-------------------------------------------------------------------------------|e
|-------------------------------------------------------------------------------|B
|---------------2-0--(0)-2---0--0--------------------------------------2-2-2---0|G
|------0-2--(2)-------------------3-2-0-3------3-2-0----2--0-----------------2--|D
|3---3--------------------------------------3--------3------------3-------------|A
|---------------------------------------------------------------3---------------|E
[ Tab from: http://www.guitartabs.cc/tabs/p/pretenders/ill_stand_by_you_tab.html ]
I get angry too, well, I'm a lot like you When you're standing at the cross roads
|-------------------------------------------------------------|e
|-------------------------------------------------------------|B
|-0----------------------------------0--0---------------------|G
|---3-2-0--3-------2--2---2--2-0----------3--(3)-2-2-0--(0)---|D
|--------------3-3------------------------------------------3-|A
|----------------------------------3--------------------------|E

and don't know which path to choose, let me come a long 'cause even if you're...
|------------------------------------------------|e
|------------------------------------------------|B
|----0---0------------0---------------0----------|G
|----------3-2-0--------3-2-0--3--------3-2-0--3-|D
|-----------------3----------------3-------------|A
|-3----------------------------------------------|E

Chorus II
I'll Stand by you, I'll Stand by you, won't let nobody hurt you, I'll stand by you
|-------------------------------------------------------------|e
|-------------------------------------------------------------|B
|----------------2---------------0-2----------------2--2-2--2-|G
|-3--2----0---0----0--0---0-2--3-----3--(3)-2-(2)-------------|D
|------3------------------------------------------------------|A
|-------------------------------------------------------------|E

Take me into your darkest hour, and I'll never desert you, I'll stand by you
|------------------------------------------------------------------|e
|---------------0--------------------------------------------------|B
|-2-2--2-2-2-2------------------------0------------------0---------|G
|-----------------3-2--(2)-3---0-2--3---3-3--(3)-2-(2)------3-0--0-|D
|------------------------------------------------------------------|A
|------------------------------------------------------------------|E

Short Solo

And When, When The Night Falls on you baby, you're feeling all alone you won't...
|------------------------------------------------------------------------|e
|--------3-3--3-0--(0)-0-------0-----------------------------------------|B
|-2--2-------------------2---2-----2-0-----0------2-0------0---0---------|G
|--------------------------------------3-2------------3-2---------3-0--0-|D
|----------------------------------------------0-------------------------|A
|------------------------------------------------------------------------|E

I'll stand by you won't let nobody hurt you, I'll stand by you, take me into...
|-----------------------------------------------------------------------------|e
|----------------------------------------------------------------0------------|B
|----2--------------0-2----------------2--2-2--2---2-2--2-2-2-2---------------|G
|-0----0-0---0-2--3-----3--(3)-2-(2)-------------------------------3-2--(2)-3-|D
|-----------------------------------------------------------------------------|A
|-----------------------------------------------------------------------------|E

(After playing line below, Repeat line above and line below again, fading out)
and I'll never desert you, I'll stand by you
|------------------------------------|e
|------------------------------------|B
|--------0------------------0--------|G
|-0-2--3---3-3--(3)-2-(2)------3-0-0-|D
|------------------------------------|A
|------------------------------------|E
Comments