Pressure 4 5 - Proven Chords & Tabs

 

Proven Chords & Tabs

Pressure 4 5 Chords & Tabs

Version: 2 Type: Tab 0 ratings
1 star 2 stars 3 stars 4 stars 5 stars
comments

Proven Tab

Pressure 4-5 - Proven

Intro
       repeat line 2x
d|-----------------------------------------------------|
A|-----------------------------------------------------|
F|--11---11-11-xx--6-xx-2-xx-9---9-9-xx-4-xx-6-(xx)----| mutes in = parentheses
C|--11---11-11-xx--6-xx-0-xx-9---9-9-xx-2-xx-6-(xx)----| played firsttime only
C|--9----9--9--xx--4-xx-0-xx-7---7-7-xx-2-xx-4-(xx)----|
         X                       X
chords with a capital X under them are optional back-picked chords.      =


Figure 2:

Repeat 4x
d|------14-14--------------------(14r)----|
A|------------15-14-14-15-14-15r----------| note in parentheses played
F|--14------------------------------------| second time only.
C|----------------------------------------|
G|----------------------------------------|
C|----------------------------------------|

d|-----------------------------------|
A|-----------------------------------|
F|-----------------------------------|
C|--4-4--4-4--5-5--5-5-0r------------|
G|--4-4--4-4--5-5--5-5-0r------------|
C|--4-4--4-4--5-5--5-5-0r------------|

Chorus:

repeat line 3 times
d|-----------------------------------------------------|
A|-----------------------------------------------------|
F|--11---11-11-xx--6-xx-2-xx-9---9-9-xx-4-xx-6-(xx)----|
C|--11---11-11-xx--6-xx-0-xx-9---9-9-xx-2-xx-6-(xx)----| mutes in = parentheses
A|--9----9--9--xx--4-xx-0-xx-7---7-7-xx-2-xx-4-(xx)----| are optional
C|--9----9--9--xx--4-xx-0-xx-7---7-7-xx-2-xx-4-(xx)----|
         X                       X
Means a lot...
So much...
what I'm trying..
[ Tab from: http://www.guitartabs.cc/tabs/p/pressure_4_5/proven_tab_ver_2.html ]
d|-----------------------------------------------------|
A|-----------------------------------------------------|
F|--11---11-11-xx--6-xx-2-xx-9---9-9-xx-4-xx-6---------|
C|--11---11-11-xx--6-xx-0-xx-9---9-9-xx-2-xx-6---------|
A|--9----9--9--xx--4-xx-0-xx-7---7-7-xx-2-xx-4---------|
C|--9----9--9--xx--4-xx-0-xx-7---7-7-xx-2-xx-4---------|
         X                       X
things like this...


figure 2


Chorus

except last line is replaced by this:
d|-----------------------------------------------------|
A|-----------------------------------------------------|
F|--11---11-11-xx--6-xx-2-xx-9---9-9r------------------|
C|--11---11-11-xx--6-xx-0-xx-9---9-9r------------------|
A|--9----9--9--xx--4-xx-0-xx-7---7-7r------------------|
C|--9----9--9--xx--4-xx-0-xx-7---7-7r------------------|
         X                       X
things like this...


repeat line 4x
d|--------------------------------------|
A|--------------------------------------|
F|--------------------------------------|
C|--2---2-2--2-2-2h4-4-4-4p0--5---------|
G|--2---2-2--2-2-2h4-4-4-4p0--5---------|
C|--2---2-2--2-2-2h4-4-4-4p0--5---------|
face your feelings...
find a place...
nothing can...
except the...


Chorus

except last line is replaced by this:
d|------------------------------------|
A|------------------------------------|
F|--11r------6r----2--9---(11)--------|
C|--11r------6r----0--9---(9)---------|
A|--9r-------4r----0--7---(9)---------|
C|--9r-------4r----0--7---(9)---------|
things like this...                            

figure 2


End:
Comments