Pressure 4 5 - Pieces Chords & Tabs

 

Pieces Chords & Tabs

Pressure 4 5 Chords & Tabs

Version: 2 Type: Tab 0 ratings
1 star 2 stars 3 stars 4 stars 5 stars
comments

Pieces Tab

   
Artist- Pressure 4-5
Song- Pieces
Tabber- Iconoclast

Intro
d|----------------------------------------------------|
a|----------------------------------------------6-----|
f|-9--------9---------10-----5---------5----------5---|
c|---7---7----7---7------9-----3---3-----3---3------3-|
g|-----8---8----8---8------7-----5---5-----5---5------|
C|----------------------------------------------------|

Intro 2 (also prechorus)
d|--------------------------------------------------------|
a|--------------------------------------------------------|
f|---------------------9-9-9---------------------5-5-5----|
c|-7-0-7-8-0-7-0-7-8-0-7-7-7-5-0-5-7-0-5-0-5-7-0-3-3-3----|
g|-7-0-7-8-0-7-0-7-8-0-8-8-8-5-0-5-7-0-5-0-5-7-0-5-5-5----|
C|-7-0-7-8-0-7-0-7-8-0-------5-0-5-7-0-5-0-5-7-0----------|

Verse
d|-----------------------------------------------------|
a|-----------------------------------------------------|
f|---------------------9-------------------------5-----|
c|-----------------------7-------------------------3---|
g|-------------------------8-------------------------5-|
C|-7-0-7-8-0-7-0-7-8-0-------3-0-5-7-0-5-0-5-7-0-------|
[ Tab from: http://www.guitartabs.cc/tabs/p/pressure_4_5/pieces_tab_ver_2.html ]
Chorus
d|----------------------------------------------------|
a|----------------------------------------------------|
f|-----------9-9-9-9-5-5-5-5---------7-7-7-7-9-9-9----|
c|-7-0-0-0-0-9-9-9-9-5-5-5-5-3-3-3-3-7-7-7-7-7-7-7----|
g|-7-0-0-0-0-7-7-7-7-3-3-3-3-3-3-3-3-5-5-5-5-7-7-7----|
C|-7-0-0-0-0-----------------3-3-3-3---------7-7-7----|

Bridge
d|-----------------------------------------------------|
a|-------------3-------------3-------------------------|
f|-------------2-------------2-------------------------|
c|-7-7-7-7-3-0-0-7-7-7-7-3-0-0-8-8-8-8-8-8-8-8-8-8-8-8-|
g|-7-7-7-7-3-0-0-7-7-7-7-3-0-0-8-8-8-8-8-8-8-8-8-8-8-8-|
c|-7-7-7-7-3-0-0-7-7-7-7-3-0-0-8-8-8-8-8-8-8-8-8-8-8-8-|

d|-------------------------------|
a|-------------------------------|
f|-------------------------------|
c|-10-10-10-10-10-10-------------|
g|-10-10-10-10-10-10-------------|
C|-10-10-10-10-10-10-------------|

Right before last chorus this is played(strumming not shown)
d|---------------------------------|
a|---------------------------------|
f|-9-7-10-9-7----------------------|
c|-x-x-x--x-x----------------------|
g|-7-5-8--7-5----------------------|
C|---------------------------------|

Coming soon- Stares and These Hands
enjoy.
Comments